  0
SECTION
  2
HEADER
  9
$ACADVER
  1
AC1015
  9
$ACADMAINTVER
 70
     6
  9
$DWGCODEPAGE
  3
ANSI_1252
  9
$INSBASE
 10
0.0
 20
0.0
 30
0.0
  9
$EXTMIN
 10
-0.939693
 20
-0.984808
 30
0.0
  9
$EXTMAX
 10
13.0
 20
12.984808
 30
0.0
  9
$LIMMIN
 10
0.0
 20
0.0
  9
$LIMMAX
 10
0.0
 20
0.0
  9
$ORTHOMODE
 70
     0
  9
$REGENMODE
 70
     1
  9
$FILLMODE
 70
     1
  9
$QTEXTMODE
 70
     0
  9
$MIRRTEXT
 70
     1
  9
$LTSCALE
 40
1.0
  9
$ATTMODE
 70
     1
  9
$TEXTSIZE
 40
0.2
  9
$TRACEWID
 40
0.05
  9
$TEXTSTYLE
  7
Standard
  9
$CLAYER
  8
0
  9
$CELTYPE
  6
Continuous
  9
$CECOLOR
 62
   256
  9
$CELTSCALE
 40
1.0
  9
$DISPSILH
 70
     0
  9
$DIMSCALE
 40
1.0
  9
$DIMASZ
 40
0.18
  9
$DIMEXO
 40
0.0625
  9
$DIMDLI
 40
0.38
  9
$DIMRND
 40
0.0
  9
$DIMDLE
 40
0.0
  9
$DIMEXE
 40
0.18
  9
$DIMTP
 40
0.0
  9
$DIMTM
 40
0.0
  9
$DIMTXT
 40
0.18
  9
$DIMCEN
 40
0.09
  9
$DIMTSZ
 40
0.0
  9
$DIMTOL
 70
     0
  9
$DIMLIM
 70
     0
  9
$DIMTIH
 70
     1
  9
$DIMTOH
 70
     1
  9
$DIMSE1
 70
     0
  9
$DIMSE2
 70
     0
  9
$DIMTAD
 70
     0
  9
$DIMZIN
 70
     0
  9
$DIMBLK
  1

  9
$DIMASO
 70
     1
  9
$DIMSHO
 70
     1
  9
$DIMPOST
  1

  9
$DIMAPOST
  1

  9
$DIMALT
 70
     0
  9
$DIMALTD
 70
     2
  9
$DIMALTF
 40
25.4
  9
$DIMLFAC
 40
1.0
  9
$DIMTOFL
 70
     0
  9
$DIMTVP
 40
0.0
  9
$DIMTIX
 70
     0
  9
$DIMSOXD
 70
     0
  9
$DIMSAH
 70
     0
  9
$DIMBLK1
  1

  9
$DIMBLK2
  1

  9
$DIMSTYLE
  2
Standard
  9
$DIMCLRD
 70
     0
  9
$DIMCLRE
 70
     0
  9
$DIMCLRT
 70
     0
  9
$DIMTFAC
 40
1.0
  9
$DIMGAP
 40
0.09
  9
$DIMJUST
 70
     0
  9
$DIMSD1
 70
     0
  9
$DIMSD2
 70
     0
  9
$DIMTOLJ
 70
     1
  9
$DIMTZIN
 70
     0
  9
$DIMALTZ
 70
     0
  9
$DIMALTTZ
 70
     0
  9
$DIMUPT
 70
     0
  9
$DIMDEC
 70
     4
  9
$DIMTDEC
 70
     4
  9
$DIMALTU
 70
     2
  9
$DIMALTTD
 70
     2
  9
$DIMTXSTY
  7
Standard
  9
$DIMAUNIT
 70
     0
  9
$DIMADEC
 70
     0
  9
$DIMALTRND
 40
0.0
  9
$DIMAZIN
 70
     0
  9
$DIMDSEP
 70
    46
  9
$DIMATFIT
 70
     0
  9
$DIMFRAC
 70
     0
  9
$DIMLDRBLK
  1

  9
$DIMLUNIT
 70
     2
  9
$DIMLWD
 70
    -2
  9
$DIMLWE
 70
    -2
  9
$DIMTMOVE
 70
     0
  9
$LUNITS
 70
     2
  9
$LUPREC
 70
     4
  9
$SKETCHINC
 40
0.1
  9
$FILLETRAD
 40
0.0
  9
$AUNITS
 70
     0
  9
$AUPREC
 70
     0
  9
$MENU
  1
acad
  9
$ELEVATION
 40
0.0
  9
$PELEVATION
 40
0.0
  9
$THICKNESS
 40
0.0
  9
$LIMCHECK
 70
     0
  9
$CHAMFERA
 40
0.0
  9
$CHAMFERB
 40
0.0
  9
$CHAMFERC
 40
0.0
  9
$CHAMFERD
 40
0.0
  9
$SKPOLY
 70
     0
  9
$TDCREATE
 40
2453551.557175926
  9
$TDUCREATE
 40
0.000000000
  9
$TDUPDATE
 40
2453551.557175926
  9
$TDUUPDATE
 40
0.000000000
  9
$TDINDWG
 40
0.0000000000
  9
$TDUSRTIMER
 40
0.0000000000
  9
$USRTIMER
 70
     1
  9
$ANGBASE
 50
0.0
  9
$ANGDIR
 70
     0
  9
$PDMODE
 70
     0
  9
$PDSIZE
 40
0.0
  9
$PLINEWID
 40
0.0
  9
$SPLFRAME
 70
     0
  9
$SPLINETYPE
 70
     6
  9
$SPLINESEGS
 70
     8
  9
$HANDSEED
  5
1DC
  9
$SURFTAB1
 70
     6
  9
$SURFTAB2
 70
     6
  9
$SURFTYPE
 70
     6
  9
$SURFU
 70
     6
  9
$SURFV
 70
     6
  9
$UCSBASE
  2

  9
$UCSNAME
  2

  9
$UCSORG
 10
0.0
 20
0.0
 30
0.0
  9
$UCSXDIR
 10
1.0
 20
0.0
 30
0.0
  9
$UCSYDIR
 10
0.0
 20
1.0
 30
0.0
  9
$UCSORTHOREF
  2

  9
$UCSORTHOVIEW
 70
     0
  9
$UCSORGTOP
 10
0.0
 20
0.0
 30
0.0
  9
$UCSORGBOTTOM
 10
0.0
 20
0.0
 30
0.0
  9
$UCSORGLEFT
 10
0.0
 20
0.0
 30
0.0
  9
$UCSORGRIGHT
 10
0.0
 20
0.0
 30
0.0
  9
$UCSORGFRONT
 10
0.0
 20
0.0
 30
0.0
  9
$UCSORGBACK
 10
0.0
 20
0.0
 30
0.0
  9
$PUCSBASE
  2

  9
$PUCSNAME
  2

  9
$PUCSORG
 10
0.0
 20
0.0
 30
0.0
  9
$PUCSXDIR
 10
1.0
 20
0.0
 30
0.0
  9
$PUCSYDIR
 10
0.0
 20
1.0
 30
0.0
  9
$PUCSORTHOREF
  2

  9
$PUCSORTHOVIEW
 70
     0
  9
$PUCSORGTOP
 10
0.0
 20
0.0
 30
0.0
  9
$PUCSORGBOTTOM
 10
0.0
 20
0.0
 30
0.0
  9
$PUCSORGLEFT
 10
0.0
 20
0.0
 30
0.0
  9
$PUCSORGRIGHT
 10
0.0
 20
0.0
 30
0.0
  9
$PUCSORGFRONT
 10
0.0
 20
0.0
 30
0.0
  9
$PUCSORGBACK
 10
0.0
 20
0.0
 30
0.0
  9
$USERI1
 70
     0
  9
$USERI2
 70
     0
  9
$USERI3
 70
     0
  9
$USERI4
 70
     0
  9
$USERI5
 70
     0
  9
$USERR1
 40
0.0
  9
$USERR2
 40
0.0
  9
$USERR3
 40
0.0
  9
$USERR4
 40
0.0
  9
$USERR5
 40
0.0
  9
$WORLDVIEW
 70
     1
  9
$SHADEDGE
 70
     3
  9
$SHADEDIF
 70
    70
  9
$TILEMODE
 70
     1
  9
$MAXACTVP
 70
    16
  9
$PINSBASE
 10
0.0
 20
0.0
 30
0.0
  9
$PLIMCHECK
 70
     0
  9
$PEXTMIN
 10
1.000000E+20
 20
1.000000E+20
 30
1.000000E+20
  9
$PEXTMAX
 10
-1.000000E+20
 20
-1.000000E+20
 30
-1.000000E+20
  9
$PLIMMIN
 10
0.0
 20
0.0
  9
$PLIMMAX
 10
12.0
 20
9.0
  9
$UNITMODE
 70
     0
  9
$VISRETAIN
 70
     0
  9
$PLINEGEN
 70
     1
  9
$PSLTSCALE
 70
     0
  9
$TREEDEPTH
 70
  3020
  9
$CMLSTYLE
  2
Standard
  9
$CMLJUST
 70
     0
  9
$CMLSCALE
 40
1.0
  9
$PROXYGRAPHICS
 70
     0
  9
$MEASUREMENT
 70
     0
  9
$CELWEIGHT
370
     0
  9
$ENDCAPS
280
     0
  9
$JOINSTYLE
280
     0
  9
$LWDISPLAY
290
     0
  9
$INSUNITS
 70
     0
  9
$HYPERLINKBASE
  1

  9
$XEDIT
290
     1
  9
$CEPSNTYPE
380
     0
  9
$PSTYLEMODE
290
     1
  9
$FINGERPRINTGUID
  2

  9
$VERSIONGUID
  2

  9
$EXTNAMES
290
     1
  9
$PSVPSCALE
 40
0.0
  0
ENDSEC
  0
SECTION
  2
CLASSES
  0
CLASS
  1
LWPOLYLINE
  2
AcDbPolyline
  3
AutoCAD 2000
 90
    32768
280
     0
281
     1
  0
CLASS
  1
IMAGE
  2
AcDbRasterImage
  3
ISM
 90
    32895
280
     0
281
     1
  0
CLASS
  1
OLE2FRAME
  2
AcDbOle2Frame
  3
AutoCAD 2000
 90
    32768
280
     0
281
     1
  0
CLASS
  1
HATCH
  2
AcDbHatch
  3
AutoCAD 2000
 90
    32768
280
     0
281
     1
  0
CLASS
  1
DICTIONARYVAR
  2
AcDbDictionaryVar
  3
AutoCAD 2000
 90
    32768
280
     0
281
     0
  0
CLASS
  1
RASTERVARIABLES
  2
AcDbRasterVariables
  3
ISM
 90
    32768
280
     0
281
     0
  0
CLASS
  1
IMAGEDEF
  2
AcDbRasterImageDef
  3
ISM
 90
    32768
280
     0
281
     0
  0
CLASS
  1
IMAGEDEF_REACTOR
  2
AcDbRasterImageDefReactor
  3
ISM
 90
    32769
280
     0
281
     0
  0
CLASS
  1
IDBUFFER
  2
AcDbIdBuffer
  3
AutoCAD 2000
 90
    32768
280
     0
281
     0
  0
CLASS
  1
SPATIAL_FILTER
  2
AcDbSpatialFilter
  3
AutoCAD 2000
 90
    32768
280
     0
281
     0
  0
CLASS
  1
XRECORD
  2
AcDbXrecord
  3
AutoCAD 2000
 90
    32768
280
     0
281
     0
  0
CLASS
  1
SORTENTSTABLE
  2
AcDbSortentsTable
  3
AutoCAD 2000
 90
    32768
280
     0
281
     0
  0
CLASS
  1
LAYER_INDEX
  2
AcDbLayerIndex
  3
AutoCAD 2000
 90
    32768
280
     0
281
     0
  0
CLASS
  1
SPATIAL_INDEX
  2
AcDbSpatialIndex
  3
AutoCAD 2000
 90
    32768
280
     0
281
     0
  0
CLASS
  1
OBJECT_PTR
  2
CAseDLPNTableRecord
  3
"ASE-LPNTableRecord"
 90
    32769
280
     0
281
     0
  0
CLASS
  1
LAYOUT
  2
AcDbLayout
  3
AutoCAD 2000
 90
        0
280
     0
281
     0
  0
CLASS
  1
PLOTSETTINGS
  2
AcDbPlotSettings
  3
AutoCAD 2000
 90
    32768
280
     0
281
     0
  0
CLASS
  1
ACDBDICTIONARYWDFLT
  2
AcDbDictionaryWithDefault
  3
AutoCAD 2000
 90
        0
280
     0
281
     0
  0
CLASS
  1
ACDBPLACEHOLDER
  2
AcDbPlaceHolder
  3
AutoCAD 2000
 90
        0
280
     0
281
     0
  0
CLASS
  1
VBA_PROJECT
  2
AcDbVbaProject
  3
acadvba
 90
    32768
280
     0
281
     0
  0
CLASS
  1
WIPEOUT
  2
AcDbWipeout
  3
WipeOut|AutoCAD Express Tool|expresstools@autodesk.com
 90
    32895
280
     0
281
     1
  0
CLASS
  1
WIPEOUTVARIABLES
  2
AcDbWipeoutVariables
  3
WipeOut|AutoCAD Express Tool|expresstools@autodesk.com
 90
        0
280
     0
281
     0
  0
CLASS
  1
RTEXT
  2
RText
  3
RText|AutoCAD Express Tool|expresstools@autodesk.com
 90
    32768
280
     0
281
     1
  0
CLASS
  1
ARCALIGNEDTEXT
  2
AcDbArcAlignedText
  3
ATEXT|AutoCAD Express Tool|expresstools@autodesk.com
 90
    32768
280
     0
281
     1
  0
ENDSEC
  0
SECTION
  2
TABLES
  0
TABLE
  2
VPORT
  5
7
100
AcDbSymbolTable
 70
     1
  0
VPORT
  5
15
100
AcDbSymbolTableRecord
100
AcDbViewportTableRecord
  2
*ACTIVE
 70
     0
 10
0.0
 20
0.0
 11
1.0
 21
1.0
 12
6.591288
 22
4.579184
 13
0.0
 23
0.0
 14
1.0
 24
1.0
 15
0.0
 25
0.0
 16
0.0
 26
0.0
 36
1.0
 17
0.0
 27
0.0
 37
0.0
 40
9.158369
 41
0.688564
 42
50.0
 43
0.0
 44
0.0
 50
0.0
 51
0.0
 71
     0
 72
   100
 73
     1
 74
     1
 75
     0
 76
     0
 77
     0
 78
     0
281
     0
 65
     0
110
0.0
120
0.0
130
0.0
111
1.0
121
0.0
131
0.0
112
0.0
122
1.0
132
0.0
345
0
346
0
 79
     0
146
0.0
  0
ENDTAB
  0
TABLE
  2
LTYPE
  5
4
100
AcDbSymbolTable
 70
     6
  0
LTYPE
  5
11
100
AcDbSymbolTableRecord
100
AcDbLinetypeTableRecord
  2
ByBlock
 70
    64
  3

 72
    65
 73
     0
 40
0.0
  0
LTYPE
  5
12
100
AcDbSymbolTableRecord
100
AcDbLinetypeTableRecord
  2
ByLayer
 70
    64
  3

 72
    65
 73
     0
 40
0.0
  0
LTYPE
  5
13
100
AcDbSymbolTableRecord
100
AcDbLinetypeTableRecord
  2
Continuous
 70
    64
  3
Solid line
 72
    65
 73
     0
 40
0.0
  0
LTYPE
  5
24
100
AcDbSymbolTableRecord
100
AcDbLinetypeTableRecord
  2
solid
 70
    64
  3

 72
    65
 73
     0
 40
0.0
  0
LTYPE
  5
25
100
AcDbSymbolTableRecord
100
AcDbLinetypeTableRecord
  2
dashed
 70
    64
  3

 72
    65
 73
     0
 40
0.0
  0
LTYPE
  5
26
100
AcDbSymbolTableRecord
100
AcDbLinetypeTableRecord
  2
center
 70
    64
  3

 72
    65
 73
     0
 40
0.0
  0
ENDTAB
  0
TABLE
  2
LAYER
  5
2
100
AcDbSymbolTable
 70
     2
  0
LAYER
  5
14
100
AcDbSymbolTableRecord
100
AcDbLayerTableRecord
  2
0
 70
     0
 62
     7
  6
Continuous
290
     1
370
    -3
390
1D
  0
LAYER
  5
27
100
AcDbSymbolTableRecord
100
AcDbLayerTableRecord
  2
0
 70
     0
 62
     0
  6
solid
290
     1
370
    -3
390
1F
  0
ENDTAB
  0
TABLE
  2
STYLE
  5
3
100
AcDbSymbolTable
 70
     1
  0
STYLE
  5
17
100
AcDbSymbolTableRecord
100
AcDbTextStyleTableRecord
  2
Standard
 70
     0
 40
0.0
 41
1.0
 50
0.0
 71
     0
 42
0.0
  3
txt
  4

  0
ENDTAB
  0
TABLE
  2
VIEW
  5
5
100
AcDbSymbolTable
 70
     0
  0
ENDTAB
  0
TABLE
  2
UCS
  5
6
100
AcDbSymbolTable
 70
     0
  0
ENDTAB
  0
TABLE
  2
APPID
  5
8
100
AcDbSymbolTable
 70
     1
  0
APPID
  5
16
100
AcDbSymbolTableRecord
100
AcDbRegAppTableRecord
  2
ACAD
 70
     0
  0
ENDTAB
  0
TABLE
  2
DIMSTYLE
  5
9
100
AcDbSymbolTable
 70
     1
100
AcDbDimStyleTable
 71
     0
  0
DIMSTYLE
105
18
100
AcDbSymbolTableRecord
100
AcDbDimStyleTableRecord
  2
Standard
 70
     0
  3

  4

 40
1.0
 41
0.18
 42
0.0625
 43
0.38
 44
0.18
 45
0.0
 46
0.0
 47
0.0
 48
0.0
 71
     0
 72
     0
 73
     1
 74
     1
 75
     0
 76
     0
 77
     0
 78
     0
 79
     0
140
0.18
141
0.09
142
0.0
143
25.4
144
1.0
145
0.0
146
1.0
147
0.09
148
0.0
170
     0
171
     2
172
     0
173
     0
174
     0
175
     0
176
     0
177
     0
178
     0
179
     0
271
     4
272
     4
273
     2
274
     2
275
     0
276
     0
277
     2
278
    46
279
     0
280
     0
281
     0
282
     0
283
     1
284
     0
285
     0
286
     0
288
     0
340
17
341
0
342
0
343
0
344
0
371
    -2
372
    -2
  0
ENDTAB
  0
TABLE
  2
BLOCK_RECORD
  5
1
100
AcDbSymbolTable
 70
     0
  0
BLOCK_RECORD
  5
A
100
AcDbSymbolTableRecord
100
AcDbBlockTableRecord
  2
*MODEL_SPACE
340
20
  0
BLOCK_RECORD
  5
B
100
AcDbSymbolTableRecord
100
AcDbBlockTableRecord
  2
*PAPER_SPACE
340
21
  0
ENDTAB
  0
ENDSEC
  0
SECTION
  2
BLOCKS
  0
BLOCK
  5
D
100
AcDbEntity
  8
0
100
AcDbBlockBegin
  2
*MODEL_SPACE
 70
     0
 10
0.0
 20
0.0
 30
0.0
  3
*MODEL_SPACE
  1

  0
ENDBLK
  5
E
100
AcDbEntity
  8
0
100
AcDbBlockEnd
  0
BLOCK
  5
F
100
AcDbEntity
 67
     1
  8
0
100
AcDbBlockBegin
  2
*PAPER_SPACE
 70
     0
 10
0.0
 20
0.0
 30
0.0
  3
*PAPER_SPACE
  1

  0
ENDBLK
  5
10
100
AcDbEntity
 67
     1
  8
0
100
AcDbBlockEnd
  0
ENDSEC
  0
SECTION
  2
ENTITIES
  0
LINE
  5
28
100
AcDbEntity
  8
0
  6
solid
 62
     3
100
AcDbLine
 10
-3.766819
 20
-1.117194
 30
0.0
 11
-4.566603
 21
0.922221
 31
0.0
  0
LINE
  5
29
100
AcDbEntity
  8
0
  6
solid
 62
     3
100
AcDbLine
 10
-4.566603
 20
0.922221
 30
0.0
 11
-3.766819
 21
-1.117194
 31
0.0
  0
LINE
  5
2A
100
AcDbEntity
  8
0
  6
solid
 62
     3
100
AcDbLine
 10
-3.766819
 20
-1.117194
 30
0.0
 11
-4.566603
 21
0.922221
 31
0.0
  0
LINE
  5
2B
100
AcDbEntity
  8
0
  6
solid
 62
     3
100
AcDbLine
 10
-4.566603
 20
0.922221
 30
0.0
 11
-4.576694
 21
0.946579
 31
0.0
  0
LINE
  5
2C
100
AcDbEntity
  8
0
  6
solid
 62
     3
100
AcDbLine
 10
-4.576694
 20
0.946579
 30
0.0
 11
-4.587002
 21
0.969736
 31
0.0
  0
LINE
  5
2D
100
AcDbEntity
  8
0
  6
solid
 62
     3
100
AcDbLine
 10
-4.587002
 20
0.969736
 30
0.0
 11
-4.597577
 21
0.991825
 31
0.0
  0
LINE
  5
2E
100
AcDbEntity
  8
0
  6
solid
 62
     3
100
AcDbLine
 10
-4.597577
 20
0.991825
 30
0.0
 11
-4.608469
 21
1.012982
 31
0.0
  0
LINE
  5
2F
100
AcDbEntity
  8
0
  6
solid
 62
     3
100
AcDbLine
 10
-4.608469
 20
1.012982
 30
0.0
 11
-4.619727
 21
1.033338
 31
0.0
  0
LINE
  5
30
100
AcDbEntity
  8
0
  6
solid
 62
     3
100
AcDbLine
 10
-4.619727
 20
1.033338
 30
0.0
 11
-4.631402
 21
1.053027
 31
0.0
  0
LINE
  5
31
100
AcDbEntity
  8
0
  6
solid
 62
     3
100
AcDbLine
 10
-4.631402
 20
1.053027
 30
0.0
 11
-4.643544
 21
1.072182
 31
0.0
  0
LINE
  5
32
100
AcDbEntity
  8
0
  6
solid
 62
     3
100
AcDbLine
 10
-4.643544
 20
1.072182
 30
0.0
 11
-4.656202
 21
1.090937
 31
0.0
  0
LINE
  5
33
100
AcDbEntity
  8
0
  6
solid
 62
     3
100
AcDbLine
 10
-4.656202
 20
1.090937
 30
0.0
 11
-4.669427
 21
1.109426
 31
0.0
  0
LINE
  5
34
100
AcDbEntity
  8
0
  6
solid
 62
     3
100
AcDbLine
 10
-4.669427
 20
1.109426
 30
0.0
 11
-4.683268
 21
1.127781
 31
0.0
  0
LINE
  5
35
100
AcDbEntity
  8
0
  6
solid
 62
     3
100
AcDbLine
 10
-4.683268
 20
1.127781
 30
0.0
 11
-4.041599
 21
1.127781
 31
0.0
  0
LINE
  5
36
100
AcDbEntity
  8
0
  6
solid
 62
     3
100
AcDbLine
 10
-4.041599
 20
1.127781
 30
0.0
 11
-4.042428
 21
1.121264
 31
0.0
  0
LINE
  5
37
100
AcDbEntity
  8
0
  6
solid
 62
     3
100
AcDbLine
 10
-4.042428
 20
1.121264
 30
0.0
 11
-4.043242
 21
1.114981
 31
0.0
  0
LINE
  5
38
100
AcDbEntity
  8
0
  6
solid
 62
     3
100
AcDbLine
 10
-4.043242
 20
1.114981
 30
0.0
 11
-4.044022
 21
1.108831
 31
0.0
  0
LINE
  5
39
100
AcDbEntity
  8
0
  6
solid
 62
     3
100
AcDbLine
 10
-4.044022
 20
1.108831
 30
0.0
 11
-4.044752
 21
1.102715
 31
0.0
  0
LINE
  5
3A
100
AcDbEntity
  8
0
  6
solid
 62
     3
100
AcDbLine
 10
-4.044752
 20
1.102715
 30
0.0
 11
-4.045416
 21
1.096532
 31
0.0
  0
LINE
  5
3B
100
AcDbEntity
  8
0
  6
solid
 62
     3
100
AcDbLine
 10
-4.045416
 20
1.096532
 30
0.0
 11
-4.045997
 21
1.090182
 31
0.0
  0
LINE
  5
3C
100
AcDbEntity
  8
0
  6
solid
 62
     3
100
AcDbLine
 10
-4.045997
 20
1.090182
 30
0.0
 11
-4.046478
 21
1.083566
 31
0.0
  0
LINE
  5
3D
100
AcDbEntity
  8
0
  6
solid
 62
     3
100
AcDbLine
 10
-4.046478
 20
1.083566
 30
0.0
 11
-4.046842
 21
1.076583
 31
0.0
  0
LINE
  5
3E
100
AcDbEntity
  8
0
  6
solid
 62
     3
100
AcDbLine
 10
-4.046842
 20
1.076583
 30
0.0
 11
-4.047072
 21
1.069134
 31
0.0
  0
LINE
  5
3F
100
AcDbEntity
  8
0
  6
solid
 62
     3
100
AcDbLine
 10
-4.047072
 20
1.069134
 30
0.0
 11
-4.047153
 21
1.061117
 31
0.0
  0
LINE
  5
40
100
AcDbEntity
  8
0
  6
solid
 62
     3
100
AcDbLine
 10
-4.047153
 20
1.061117
 30
0.0
 11
-4.0461
 21
1.040605
 31
0.0
  0
LINE
  5
41
100
AcDbEntity
  8
0
  6
solid
 62
     3
100
AcDbLine
 10
-4.0461
 20
1.040605
 30
0.0
 11
-4.043064
 21
1.019026
 31
0.0
  0
LINE
  5
42
100
AcDbEntity
  8
0
  6
solid
 62
     3
100
AcDbLine
 10
-4.043064
 20
1.019026
 30
0.0
 11
-4.038228
 21
0.996314
 31
0.0
  0
LINE
  5
43
100
AcDbEntity
  8
0
  6
solid
 62
     3
100
AcDbLine
 10
-4.038228
 20
0.996314
 30
0.0
 11
-4.031775
 21
0.972403
 31
0.0
  0
LINE
  5
44
100
AcDbEntity
  8
0
  6
solid
 62
     3
100
AcDbLine
 10
-4.031775
 20
0.972403
 30
0.0
 11
-4.023889
 21
0.947225
 31
0.0
  0
LINE
  5
45
100
AcDbEntity
  8
0
  6
solid
 62
     3
100
AcDbLine
 10
-4.023889
 20
0.947225
 30
0.0
 11
-4.014752
 21
0.920713
 31
0.0
  0
LINE
  5
46
100
AcDbEntity
  8
0
  6
solid
 62
     3
100
AcDbLine
 10
-4.014752
 20
0.920713
 30
0.0
 11
-4.004549
 21
0.892802
 31
0.0
  0
LINE
  5
47
100
AcDbEntity
  8
0
  6
solid
 62
     3
100
AcDbLine
 10
-4.004549
 20
0.892802
 30
0.0
 11
-3.993463
 21
0.863424
 31
0.0
  0
LINE
  5
48
100
AcDbEntity
  8
0
  6
solid
 62
     3
100
AcDbLine
 10
-3.993463
 20
0.863424
 30
0.0
 11
-3.981677
 21
0.832513
 31
0.0
  0
LINE
  5
49
100
AcDbEntity
  8
0
  6
solid
 62
     3
100
AcDbLine
 10
-3.981677
 20
0.832513
 30
0.0
 11
-3.969374
 21
0.800002
 31
0.0
  0
LINE
  5
4A
100
AcDbEntity
  8
0
  6
solid
 62
     3
100
AcDbLine
 10
-3.969374
 20
0.800002
 30
0.0
 11
-3.569377
 21
-0.266662
 31
0.0
  0
LINE
  5
4B
100
AcDbEntity
  8
0
  6
solid
 62
     3
100
AcDbLine
 10
-3.569377
 20
-0.266662
 30
0.0
 11
-3.169373
 21
0.833334
 31
0.0
  0
LINE
  5
4C
100
AcDbEntity
  8
0
  6
solid
 62
     3
100
AcDbLine
 10
-3.169373
 20
0.833334
 30
0.0
 11
-3.156783
 21
0.86747
 31
0.0
  0
LINE
  5
4D
100
AcDbEntity
  8
0
  6
solid
 62
     3
100
AcDbLine
 10
-3.156783
 20
0.86747
 30
0.0
 11
-3.14566
 21
0.898423
 31
0.0
  0
LINE
  5
4E
100
AcDbEntity
  8
0
  6
solid
 62
     3
100
AcDbLine
 10
-3.14566
 20
0.898423
 30
0.0
 11
-3.135971
 21
0.926509
 31
0.0
  0
LINE
  5
4F
100
AcDbEntity
  8
0
  6
solid
 62
     3
100
AcDbLine
 10
-3.135971
 20
0.926509
 30
0.0
 11
-3.127682
 21
0.952046
 31
0.0
  0
LINE
  5
50
100
AcDbEntity
  8
0
  6
solid
 62
     3
100
AcDbLine
 10
-3.127682
 20
0.952046
 30
0.0
 11
-3.12076
 21
0.975348
 31
0.0
  0
LINE
  5
51
100
AcDbEntity
  8
0
  6
solid
 62
     3
100
AcDbLine
 10
-3.12076
 20
0.975348
 30
0.0
 11
-3.115171
 21
0.996734
 31
0.0
  0
LINE
  5
52
100
AcDbEntity
  8
0
  6
solid
 62
     3
100
AcDbLine
 10
-3.115171
 20
0.996734
 30
0.0
 11
-3.110882
 21
1.01652
 31
0.0
  0
LINE
  5
53
100
AcDbEntity
  8
0
  6
solid
 62
     3
100
AcDbLine
 10
-3.110882
 20
1.01652
 30
0.0
 11
-3.10786
 21
1.035023
 31
0.0
  0
LINE
  5
54
100
AcDbEntity
  8
0
  6
solid
 62
     3
100
AcDbLine
 10
-3.10786
 20
1.035023
 30
0.0
 11
-3.106071
 21
1.052559
 31
0.0
  0
LINE
  5
55
100
AcDbEntity
  8
0
  6
solid
 62
     3
100
AcDbLine
 10
-3.106071
 20
1.052559
 30
0.0
 11
-3.105482
 21
1.069445
 31
0.0
  0
LINE
  5
56
100
AcDbEntity
  8
0
  6
solid
 62
     3
100
AcDbLine
 10
-3.105482
 20
1.069445
 30
0.0
 11
-3.105643
 21
1.075954
 31
0.0
  0
LINE
  5
57
100
AcDbEntity
  8
0
  6
solid
 62
     3
100
AcDbLine
 10
-3.105643
 20
1.075954
 30
0.0
 11
-3.106105
 21
1.082179
 31
0.0
  0
LINE
  5
58
100
AcDbEntity
  8
0
  6
solid
 62
     3
100
AcDbLine
 10
-3.106105
 20
1.082179
 30
0.0
 11
-3.106832
 21
1.088171
 31
0.0
  0
LINE
  5
59
100
AcDbEntity
  8
0
  6
solid
 62
     3
100
AcDbLine
 10
-3.106832
 20
1.088171
 30
0.0
 11
-3.107793
 21
1.09398
 31
0.0
  0
LINE
  5
5A
100
AcDbEntity
  8
0
  6
solid
 62
     3
100
AcDbLine
 10
-3.107793
 20
1.09398
 30
0.0
 11
-3.108955
 21
1.099656
 31
0.0
  0
LINE
  5
5B
100
AcDbEntity
  8
0
  6
solid
 62
     3
100
AcDbLine
 10
-3.108955
 20
1.099656
 30
0.0
 11
-3.110283
 21
1.105248
 31
0.0
  0
LINE
  5
5C
100
AcDbEntity
  8
0
  6
solid
 62
     3
100
AcDbLine
 10
-3.110283
 20
1.105248
 30
0.0
 11
-3.111744
 21
1.110806
 31
0.0
  0
LINE
  5
5D
100
AcDbEntity
  8
0
  6
solid
 62
     3
100
AcDbLine
 10
-3.111744
 20
1.110806
 30
0.0
 11
-3.113306
 21
1.116381
 31
0.0
  0
LINE
  5
5E
100
AcDbEntity
  8
0
  6
solid
 62
     3
100
AcDbLine
 10
-3.113306
 20
1.116381
 30
0.0
 11
-3.114935
 21
1.122023
 31
0.0
  0
LINE
  5
5F
100
AcDbEntity
  8
0
  6
solid
 62
     3
100
AcDbLine
 10
-3.114935
 20
1.122023
 30
0.0
 11
-3.116598
 21
1.127781
 31
0.0
  0
LINE
  5
60
100
AcDbEntity
  8
0
  6
solid
 62
     3
100
AcDbLine
 10
-3.116598
 20
1.127781
 30
0.0
 11
3.536445
 21
1.13048
 31
0.0
  0
LINE
  5
61
100
AcDbEntity
  8
0
  6
solid
 62
     3
100
AcDbLine
 10
3.536445
 20
1.13048
 30
0.0
 11
3.478006
 21
1.067734
 31
0.0
  0
LINE
  5
62
100
AcDbEntity
  8
0
  6
solid
 62
     3
100
AcDbLine
 10
3.478006
 20
1.067734
 30
0.0
 11
3.426796
 21
1.024771
 31
0.0
  0
LINE
  5
63
100
AcDbEntity
  8
0
  6
solid
 62
     3
100
AcDbLine
 10
3.426796
 20
1.024771
 30
0.0
 11
3.381926
 21
0.996836
 31
0.0
  0
LINE
  5
64
100
AcDbEntity
  8
0
  6
solid
 62
     3
100
AcDbLine
 10
3.381926
 20
0.996836
 30
0.0
 11
3.342507
 21
0.979173
 31
0.0
  0
LINE
  5
65
100
AcDbEntity
  8
0
  6
solid
 62
     3
100
AcDbLine
 10
3.342507
 20
0.979173
 30
0.0
 11
3.307649
 21
0.967028
 31
0.0
  0
LINE
  5
66
100
AcDbEntity
  8
0
  6
solid
 62
     3
100
AcDbLine
 10
3.307649
 20
0.967028
 30
0.0
 11
3.276465
 21
0.955644
 31
0.0
  0
LINE
  5
67
100
AcDbEntity
  8
0
  6
solid
 62
     3
100
AcDbLine
 10
3.276465
 20
0.955644
 30
0.0
 11
3.248065
 21
0.940267
 31
0.0
  0
LINE
  5
68
100
AcDbEntity
  8
0
  6
solid
 62
     3
100
AcDbLine
 10
3.248065
 20
0.940267
 30
0.0
 11
3.221561
 21
0.91614
 31
0.0
  0
LINE
  5
69
100
AcDbEntity
  8
0
  6
solid
 62
     3
100
AcDbLine
 10
3.221561
 20
0.91614
 30
0.0
 11
3.196062
 21
0.878509
 31
0.0
  0
LINE
  5
6A
100
AcDbEntity
  8
0
  6
solid
 62
     3
100
AcDbLine
 10
3.196062
 20
0.878509
 30
0.0
 11
3.170681
 21
0.822619
 31
0.0
  0
LINE
  5
6B
100
AcDbEntity
  8
0
  6
solid
 62
     3
100
AcDbLine
 10
3.170681
 20
0.822619
 30
0.0
 11
-2.921848
 21
0.817424
 31
0.0
  0
LINE
  5
6C
100
AcDbEntity
  8
0
  6
solid
 62
     3
100
AcDbLine
 10
-2.921848
 20
0.817424
 30
0.0
 11
-3.662652
 21
-1.117194
 31
0.0
  0
LINE
  5
6D
100
AcDbEntity
  8
0
  6
solid
 62
     3
100
AcDbLine
 10
-3.662652
 20
-1.117194
 30
0.0
 11
-3.766819
 21
-1.117194
 31
0.0
  0
LINE
  5
6E
100
AcDbEntity
  8
0
  6
solid
 62
     3
100
AcDbLine
 10
-3.766819
 20
-1.117194
 30
0.0
 11
-3.662652
 21
-1.117194
 31
0.0
  0
LINE
  5
6F
100
AcDbEntity
  8
0
  6
solid
 62
     3
100
AcDbLine
 10
-3.662652
 20
-1.117194
 30
0.0
 11
-3.766819
 21
-1.117194
 31
0.0
  0
LINE
  5
70
100
AcDbEntity
  8
0
  6
solid
 62
     3
100
AcDbLine
 10
-2.692017
 20
-1.122728
 30
0.0
 11
-2.684333
 21
-1.097964
 31
0.0
  0
LINE
  5
71
100
AcDbEntity
  8
0
  6
solid
 62
     3
100
AcDbLine
 10
-2.684333
 20
-1.097964
 30
0.0
 11
-2.677884
 21
-1.073616
 31
0.0
  0
LINE
  5
72
100
AcDbEntity
  8
0
  6
solid
 62
     3
100
AcDbLine
 10
-2.677884
 20
-1.073616
 30
0.0
 11
-2.672567
 21
-1.049601
 31
0.0
  0
LINE
  5
73
100
AcDbEntity
  8
0
  6
solid
 62
     3
100
AcDbLine
 10
-2.672567
 20
-1.049601
 30
0.0
 11
-2.668284
 21
-1.025836
 31
0.0
  0
LINE
  5
74
100
AcDbEntity
  8
0
  6
solid
 62
     3
100
AcDbLine
 10
-2.668284
 20
-1.025836
 30
0.0
 11
-2.664934
 21
-1.002238
 31
0.0
  0
LINE
  5
75
100
AcDbEntity
  8
0
  6
solid
 62
     3
100
AcDbLine
 10
-2.664934
 20
-1.002238
 30
0.0
 11
-2.662418
 21
-0.978722
 31
0.0
  0
LINE
  5
76
100
AcDbEntity
  8
0
  6
solid
 62
     3
100
AcDbLine
 10
-2.662418
 20
-0.978722
 30
0.0
 11
-2.660634
 21
-0.955206
 31
0.0
  0
LINE
  5
77
100
AcDbEntity
  8
0
  6
solid
 62
     3
100
AcDbLine
 10
-2.660634
 20
-0.955206
 30
0.0
 11
-2.659485
 21
-0.931606
 31
0.0
  0
LINE
  5
78
100
AcDbEntity
  8
0
  6
solid
 62
     3
100
AcDbLine
 10
-2.659485
 20
-0.931606
 30
0.0
 11
-2.658868
 21
-0.907839
 31
0.0
  0
LINE
  5
79
100
AcDbEntity
  8
0
  6
solid
 62
     3
100
AcDbLine
 10
-2.658868
 20
-0.907839
 30
0.0
 11
-2.658685
 21
-0.883822
 31
0.0
  0
LINE
  5
7A
100
AcDbEntity
  8
0
  6
solid
 62
     3
100
AcDbLine
 10
-2.658685
 20
-0.883822
 30
0.0
 11
-2.658685
 21
0.416179
 31
0.0
  0
LINE
  5
7B
100
AcDbEntity
  8
0
  6
solid
 62
     3
100
AcDbLine
 10
-2.658685
 20
0.416179
 30
0.0
 11
-2.658868
 21
0.440194
 31
0.0
  0
LINE
  5
7C
100
AcDbEntity
  8
0
  6
solid
 62
     3
100
AcDbLine
 10
-2.658868
 20
0.440194
 30
0.0
 11
-2.659485
 21
0.463958
 31
0.0
  0
LINE
  5
7D
100
AcDbEntity
  8
0
  6
solid
 62
     3
100
AcDbLine
 10
-2.659485
 20
0.463958
 30
0.0
 11
-2.660634
 21
0.487556
 31
0.0
  0
LINE
  5
7E
100
AcDbEntity
  8
0
  6
solid
 62
     3
100
AcDbLine
 10
-2.660634
 20
0.487556
 30
0.0
 11
-2.662418
 21
0.51107
 31
0.0
  0
LINE
  5
7F
100
AcDbEntity
  8
0
  6
solid
 62
     3
100
AcDbLine
 10
-2.662418
 20
0.51107
 30
0.0
 11
-2.664934
 21
0.534585
 31
0.0
  0
LINE
  5
80
100
AcDbEntity
  8
0
  6
solid
 62
     3
100
AcDbLine
 10
-2.664934
 20
0.534585
 30
0.0
 11
-2.668284
 21
0.558182
 31
0.0
  0
LINE
  5
81
100
AcDbEntity
  8
0
  6
solid
 62
     3
100
AcDbLine
 10
-2.668284
 20
0.558182
 30
0.0
 11
-2.672567
 21
0.581946
 31
0.0
  0
LINE
  5
82
100
AcDbEntity
  8
0
  6
solid
 62
     3
100
AcDbLine
 10
-2.672567
 20
0.581946
 30
0.0
 11
-2.677884
 21
0.60596
 31
0.0
  0
LINE
  5
83
100
AcDbEntity
  8
0
  6
solid
 62
     3
100
AcDbLine
 10
-2.677884
 20
0.60596
 30
0.0
 11
-2.684333
 21
0.630307
 31
0.0
  0
LINE
  5
84
100
AcDbEntity
  8
0
  6
solid
 62
     3
100
AcDbLine
 10
-2.684333
 20
0.630307
 30
0.0
 11
-2.692017
 21
0.655071
 31
0.0
  0
LINE
  5
85
100
AcDbEntity
  8
0
  6
solid
 62
     3
100
AcDbLine
 10
-2.692017
 20
0.655071
 30
0.0
 11
-1.23367
 21
0.655071
 31
0.0
  0
LINE
  5
86
100
AcDbEntity
  8
0
  6
solid
 62
     3
100
AcDbLine
 10
-1.23367
 20
0.655071
 30
0.0
 11
-1.189236
 21
0.385627
 31
0.0
  0
LINE
  5
87
100
AcDbEntity
  8
0
  6
solid
 62
     3
100
AcDbLine
 10
-1.189236
 20
0.385627
 30
0.0
 11
-1.215086
 21
0.395568
 31
0.0
  0
LINE
  5
88
100
AcDbEntity
  8
0
  6
solid
 62
     3
100
AcDbLine
 10
-1.215086
 20
0.395568
 30
0.0
 11
-1.242369
 21
0.403825
 31
0.0
  0
LINE
  5
89
100
AcDbEntity
  8
0
  6
solid
 62
     3
100
AcDbLine
 10
-1.242369
 20
0.403825
 30
0.0
 11
-1.270684
 21
0.41055
 31
0.0
  0
LINE
  5
8A
100
AcDbEntity
  8
0
  6
solid
 62
     3
100
AcDbLine
 10
-1.270684
 20
0.41055
 30
0.0
 11
-1.299634
 21
0.415892
 31
0.0
  0
LINE
  5
8B
100
AcDbEntity
  8
0
  6
solid
 62
     3
100
AcDbLine
 10
-1.299634
 20
0.415892
 30
0.0
 11
-1.328817
 21
0.42
 31
0.0
  0
LINE
  5
8C
100
AcDbEntity
  8
0
  6
solid
 62
     3
100
AcDbLine
 10
-1.328817
 20
0.42
 30
0.0
 11
-1.357834
 21
0.423026
 31
0.0
  0
LINE
  5
8D
100
AcDbEntity
  8
0
  6
solid
 62
     3
100
AcDbLine
 10
-1.357834
 20
0.423026
 30
0.0
 11
-1.386285
 21
0.425118
 31
0.0
  0
LINE
  5
8E
100
AcDbEntity
  8
0
  6
solid
 62
     3
100
AcDbLine
 10
-1.386285
 20
0.425118
 30
0.0
 11
-1.413771
 21
0.426427
 31
0.0
  0
LINE
  5
8F
100
AcDbEntity
  8
0
  6
solid
 62
     3
100
AcDbLine
 10
-1.413771
 20
0.426427
 30
0.0
 11
-1.439891
 21
0.427102
 31
0.0
  0
LINE
  5
90
100
AcDbEntity
  8
0
  6
solid
 62
     3
100
AcDbLine
 10
-1.439891
 20
0.427102
 30
0.0
 11
-1.464247
 21
0.427294
 31
0.0
  0
LINE
  5
91
100
AcDbEntity
  8
0
  6
solid
 62
     3
100
AcDbLine
 10
-1.464247
 20
0.427294
 30
0.0
 11
-2.136448
 21
0.427294
 31
0.0
  0
LINE
  5
92
100
AcDbEntity
  8
0
  6
solid
 62
     3
100
AcDbLine
 10
-2.136448
 20
0.427294
 30
0.0
 11
-2.136448
 21
-0.111599
 31
0.0
  0
LINE
  5
93
100
AcDbEntity
  8
0
  6
solid
 62
     3
100
AcDbLine
 10
-2.136448
 20
-0.111599
 30
0.0
 11
-1.550347
 21
-0.111599
 31
0.0
  0
LINE
  5
94
100
AcDbEntity
  8
0
  6
solid
 62
     3
100
AcDbLine
 10
-1.550347
 20
-0.111599
 30
0.0
 11
-1.525998
 21
-0.111407
 31
0.0
  0
LINE
  5
95
100
AcDbEntity
  8
0
  6
solid
 62
     3
100
AcDbLine
 10
-1.525998
 20
-0.111407
 30
0.0
 11
-1.499882
 21
-0.110732
 31
0.0
  0
LINE
  5
96
100
AcDbEntity
  8
0
  6
solid
 62
     3
100
AcDbLine
 10
-1.499882
 20
-0.110732
 30
0.0
 11
-1.472397
 21
-0.109424
 31
0.0
  0
LINE
  5
97
100
AcDbEntity
  8
0
  6
solid
 62
     3
100
AcDbLine
 10
-1.472397
 20
-0.109424
 30
0.0
 11
-1.443946
 21
-0.107333
 31
0.0
  0
LINE
  5
98
100
AcDbEntity
  8
0
  6
solid
 62
     3
100
AcDbLine
 10
-1.443946
 20
-0.107333
 30
0.0
 11
-1.414927
 21
-0.104308
 31
0.0
  0
LINE
  5
99
100
AcDbEntity
  8
0
  6
solid
 62
     3
100
AcDbLine
 10
-1.414927
 20
-0.104308
 30
0.0
 11
-1.385742
 21
-0.100199
 31
0.0
  0
LINE
  5
9A
100
AcDbEntity
  8
0
  6
solid
 62
     3
100
AcDbLine
 10
-1.385742
 20
-0.100199
 30
0.0
 11
-1.35679
 21
-0.094858
 31
0.0
  0
LINE
  5
9B
100
AcDbEntity
  8
0
  6
solid
 62
     3
100
AcDbLine
 10
-1.35679
 20
-0.094858
 30
0.0
 11
-1.328471
 21
-0.088133
 31
0.0
  0
LINE
  5
9C
100
AcDbEntity
  8
0
  6
solid
 62
     3
100
AcDbLine
 10
-1.328471
 20
-0.088133
 30
0.0
 11
-1.301187
 21
-0.079874
 31
0.0
  0
LINE
  5
9D
100
AcDbEntity
  8
0
  6
solid
 62
     3
100
AcDbLine
 10
-1.301187
 20
-0.079874
 30
0.0
 11
-1.275336
 21
-0.069932
 31
0.0
  0
LINE
  5
9E
100
AcDbEntity
  8
0
  6
solid
 62
     3
100
AcDbLine
 10
-1.275336
 20
-0.069932
 30
0.0
 11
-1.275336
 21
-0.381056
 31
0.0
  0
LINE
  5
9F
100
AcDbEntity
  8
0
  6
solid
 62
     3
100
AcDbLine
 10
-1.275336
 20
-0.381056
 30
0.0
 11
-1.301187
 21
-0.371112
 31
0.0
  0
LINE
  5
A0
100
AcDbEntity
  8
0
  6
solid
 62
     3
100
AcDbLine
 10
-1.301187
 20
-0.371112
 30
0.0
 11
-1.328471
 21
-0.362851
 31
0.0
  0
LINE
  5
A1
100
AcDbEntity
  8
0
  6
solid
 62
     3
100
AcDbLine
 10
-1.328471
 20
-0.362851
 30
0.0
 11
-1.35679
 21
-0.356124
 31
0.0
  0
LINE
  5
A2
100
AcDbEntity
  8
0
  6
solid
 62
     3
100
AcDbLine
 10
-1.35679
 20
-0.356124
 30
0.0
 11
-1.385742
 21
-0.350781
 31
0.0
  0
LINE
  5
A3
100
AcDbEntity
  8
0
  6
solid
 62
     3
100
AcDbLine
 10
-1.385742
 20
-0.350781
 30
0.0
 11
-1.414927
 21
-0.346671
 31
0.0
  0
LINE
  5
A4
100
AcDbEntity
  8
0
  6
solid
 62
     3
100
AcDbLine
 10
-1.414927
 20
-0.346671
 30
0.0
 11
-1.443946
 21
-0.343644
 31
0.0
  0
LINE
  5
A5
100
AcDbEntity
  8
0
  6
solid
 62
     3
100
AcDbLine
 10
-1.443946
 20
-0.343644
 30
0.0
 11
-1.472397
 21
-0.341552
 31
0.0
  0
LINE
  5
A6
100
AcDbEntity
  8
0
  6
solid
 62
     3
100
AcDbLine
 10
-1.472397
 20
-0.341552
 30
0.0
 11
-1.499882
 21
-0.340243
 31
0.0
  0
LINE
  5
A7
100
AcDbEntity
  8
0
  6
solid
 62
     3
100
AcDbLine
 10
-1.499882
 20
-0.340243
 30
0.0
 11
-1.525998
 21
-0.339567
 31
0.0
  0
LINE
  5
A8
100
AcDbEntity
  8
0
  6
solid
 62
     3
100
AcDbLine
 10
-1.525998
 20
-0.339567
 30
0.0
 11
-1.550347
 21
-0.339375
 31
0.0
  0
LINE
  5
A9
100
AcDbEntity
  8
0
  6
solid
 62
     3
100
AcDbLine
 10
-1.550347
 20
-0.339375
 30
0.0
 11
-2.136448
 21
-0.339375
 31
0.0
  0
LINE
  5
AA
100
AcDbEntity
  8
0
  6
solid
 62
     3
100
AcDbLine
 10
-2.136448
 20
-0.339375
 30
0.0
 11
-2.136448
 21
-0.894945
 31
0.0
  0
LINE
  5
AB
100
AcDbEntity
  8
0
  6
solid
 62
     3
100
AcDbLine
 10
-2.136448
 20
-0.894945
 30
0.0
 11
2.767904
 21
-0.892666
 31
0.0
  0
LINE
  5
AC
100
AcDbEntity
  8
0
  6
solid
 62
     3
100
AcDbLine
 10
2.767904
 20
-0.892666
 30
0.0
 11
2.861929
 21
-0.890779
 31
0.0
  0
LINE
  5
AD
100
AcDbEntity
  8
0
  6
solid
 62
     3
100
AcDbLine
 10
2.861929
 20
-0.890779
 30
0.0
 11
2.942315
 21
-0.874254
 31
0.0
  0
LINE
  5
AE
100
AcDbEntity
  8
0
  6
solid
 62
     3
100
AcDbLine
 10
2.942315
 20
-0.874254
 30
0.0
 11
3.010701
 21
-0.847619
 31
0.0
  0
LINE
  5
AF
100
AcDbEntity
  8
0
  6
solid
 62
     3
100
AcDbLine
 10
3.010701
 20
-0.847619
 30
0.0
 11
3.068725
 21
-0.815401
 31
0.0
  0
LINE
  5
B0
100
AcDbEntity
  8
0
  6
solid
 62
     3
100
AcDbLine
 10
3.068725
 20
-0.815401
 30
0.0
 11
3.118027
 21
-0.782128
 31
0.0
  0
LINE
  5
B1
100
AcDbEntity
  8
0
  6
solid
 62
     3
100
AcDbLine
 10
3.118027
 20
-0.782128
 30
0.0
 11
3.160244
 21
-0.752327
 31
0.0
  0
LINE
  5
B2
100
AcDbEntity
  8
0
  6
solid
 62
     3
100
AcDbLine
 10
3.160244
 20
-0.752327
 30
0.0
 11
3.197017
 21
-0.730526
 31
0.0
  0
LINE
  5
B3
100
AcDbEntity
  8
0
  6
solid
 62
     3
100
AcDbLine
 10
3.197017
 20
-0.730526
 30
0.0
 11
3.229984
 21
-0.721253
 31
0.0
  0
LINE
  5
B4
100
AcDbEntity
  8
0
  6
solid
 62
     3
100
AcDbLine
 10
3.229984
 20
-0.721253
 30
0.0
 11
3.260784
 21
-0.729036
 31
0.0
  0
LINE
  5
B5
100
AcDbEntity
  8
0
  6
solid
 62
     3
100
AcDbLine
 10
3.260784
 20
-0.729036
 30
0.0
 11
3.291056
 21
-0.758402
 31
0.0
  0
LINE
  5
B6
100
AcDbEntity
  8
0
  6
solid
 62
     3
100
AcDbLine
 10
3.291056
 20
-0.758402
 30
0.0
 11
3.513278
 21
-1.124138
 31
0.0
  0
LINE
  5
B7
100
AcDbEntity
  8
0
  6
solid
 62
     3
100
AcDbLine
 10
3.513278
 20
-1.124138
 30
0.0
 11
-2.692017
 21
-1.122728
 31
0.0
  0
LINE
  5
B8
100
AcDbEntity
  8
0
  6
solid
 62
     3
100
AcDbLine
 10
-2.692017
 20
-1.122728
 30
0.0
 11
3.513278
 21
-1.124138
 31
0.0
  0
LINE
  5
B9
100
AcDbEntity
  8
0
  6
solid
 62
     3
100
AcDbLine
 10
3.513278
 20
-1.124138
 30
0.0
 11
-2.692017
 21
-1.122728
 31
0.0
  0
LINE
  5
BA
100
AcDbEntity
  8
0
  6
solid
 62
     3
100
AcDbLine
 10
-0.552762
 20
0.522224
 30
0.0
 11
-0.547201
 21
0.522224
 31
0.0
  0
LINE
  5
BB
100
AcDbEntity
  8
0
  6
solid
 62
     3
100
AcDbLine
 10
-0.547201
 20
0.522224
 30
0.0
 11
-0.542871
 21
0.537479
 31
0.0
  0
LINE
  5
BC
100
AcDbEntity
  8
0
  6
solid
 62
     3
100
AcDbLine
 10
-0.542871
 20
0.537479
 30
0.0
 11
-0.538225
 21
0.551601
 31
0.0
  0
LINE
  5
BD
100
AcDbEntity
  8
0
  6
solid
 62
     3
100
AcDbLine
 10
-0.538225
 20
0.551601
 30
0.0
 11
-0.53328
 21
0.564623
 31
0.0
  0
LINE
  5
BE
100
AcDbEntity
  8
0
  6
solid
 62
     3
100
AcDbLine
 10
-0.53328
 20
0.564623
 30
0.0
 11
-0.528051
 21
0.576579
 31
0.0
  0
LINE
  5
BF
100
AcDbEntity
  8
0
  6
solid
 62
     3
100
AcDbLine
 10
-0.528051
 20
0.576579
 30
0.0
 11
-0.522556
 21
0.587502
 31
0.0
  0
LINE
  5
C0
100
AcDbEntity
  8
0
  6
solid
 62
     3
100
AcDbLine
 10
-0.522556
 20
0.587502
 30
0.0
 11
-0.51681
 21
0.597425
 31
0.0
  0
LINE
  5
C1
100
AcDbEntity
  8
0
  6
solid
 62
     3
100
AcDbLine
 10
-0.51681
 20
0.597425
 30
0.0
 11
-0.51083
 21
0.606381
 31
0.0
  0
LINE
  5
C2
100
AcDbEntity
  8
0
  6
solid
 62
     3
100
AcDbLine
 10
-0.51083
 20
0.606381
 30
0.0
 11
-0.504631
 21
0.614403
 31
0.0
  0
LINE
  5
C3
100
AcDbEntity
  8
0
  6
solid
 62
     3
100
AcDbLine
 10
-0.504631
 20
0.614403
 30
0.0
 11
-0.498231
 21
0.621526
 31
0.0
  0
LINE
  5
C4
100
AcDbEntity
  8
0
  6
solid
 62
     3
100
AcDbLine
 10
-0.498231
 20
0.621526
 30
0.0
 11
-0.491645
 21
0.627781
 31
0.0
  0
LINE
  5
C5
100
AcDbEntity
  8
0
  6
solid
 62
     3
100
AcDbLine
 10
-0.491645
 20
0.627781
 30
0.0
 11
-0.48398
 21
0.633283
 31
0.0
  0
LINE
  5
C6
100
AcDbEntity
  8
0
  6
solid
 62
     3
100
AcDbLine
 10
-0.48398
 20
0.633283
 30
0.0
 11
-0.475963
 21
0.638136
 31
0.0
  0
LINE
  5
C7
100
AcDbEntity
  8
0
  6
solid
 62
     3
100
AcDbLine
 10
-0.475963
 20
0.638136
 30
0.0
 11
-0.467578
 21
0.642355
 31
0.0
  0
LINE
  5
C8
100
AcDbEntity
  8
0
  6
solid
 62
     3
100
AcDbLine
 10
-0.467578
 20
0.642355
 30
0.0
 11
-0.458809
 21
0.645958
 31
0.0
  0
LINE
  5
C9
100
AcDbEntity
  8
0
  6
solid
 62
     3
100
AcDbLine
 10
-0.458809
 20
0.645958
 30
0.0
 11
-0.449639
 21
0.648961
 31
0.0
  0
LINE
  5
CA
100
AcDbEntity
  8
0
  6
solid
 62
     3
100
AcDbLine
 10
-0.449639
 20
0.648961
 30
0.0
 11
-0.440053
 21
0.651381
 31
0.0
  0
LINE
  5
CB
100
AcDbEntity
  8
0
  6
solid
 62
     3
100
AcDbLine
 10
-0.440053
 20
0.651381
 30
0.0
 11
-0.430034
 21
0.653233
 31
0.0
  0
LINE
  5
CC
100
AcDbEntity
  8
0
  6
solid
 62
     3
100
AcDbLine
 10
-0.430034
 20
0.653233
 30
0.0
 11
-0.419566
 21
0.654536
 31
0.0
  0
LINE
  5
CD
100
AcDbEntity
  8
0
  6
solid
 62
     3
100
AcDbLine
 10
-0.419566
 20
0.654536
 30
0.0
 11
-0.408632
 21
0.655306
 31
0.0
  0
LINE
  5
CE
100
AcDbEntity
  8
0
  6
solid
 62
     3
100
AcDbLine
 10
-0.408632
 20
0.655306
 30
0.0
 11
-0.397217
 21
0.655559
 31
0.0
  0
LINE
  5
CF
100
AcDbEntity
  8
0
  6
solid
 62
     3
100
AcDbLine
 10
-0.397217
 20
0.655559
 30
0.0
 11
0.26945
 21
0.655559
 31
0.0
  0
LINE
  5
D0
100
AcDbEntity
  8
0
  6
solid
 62
     3
100
AcDbLine
 10
0.26945
 20
0.655559
 30
0.0
 11
0.307227
 21
0.654825
 31
0.0
  0
LINE
  5
D1
100
AcDbEntity
  8
0
  6
solid
 62
     3
100
AcDbLine
 10
0.307227
 20
0.654825
 30
0.0
 11
0.339321
 21
0.652359
 31
0.0
  0
LINE
  5
D2
100
AcDbEntity
  8
0
  6
solid
 62
     3
100
AcDbLine
 10
0.339321
 20
0.652359
 30
0.0
 11
0.36638
 21
0.647758
 31
0.0
  0
LINE
  5
D3
100
AcDbEntity
  8
0
  6
solid
 62
     3
100
AcDbLine
 10
0.36638
 20
0.647758
 30
0.0
 11
0.389055
 21
0.640625
 31
0.0
  0
LINE
  5
D4
100
AcDbEntity
  8
0
  6
solid
 62
     3
100
AcDbLine
 10
0.389055
 20
0.640625
 30
0.0
 11
0.407996
 21
0.630558
 31
0.0
  0
LINE
  5
D5
100
AcDbEntity
  8
0
  6
solid
 62
     3
100
AcDbLine
 10
0.407996
 20
0.630558
 30
0.0
 11
0.423854
 21
0.617158
 31
0.0
  0
LINE
  5
D6
100
AcDbEntity
  8
0
  6
solid
 62
     3
100
AcDbLine
 10
0.423854
 20
0.617158
 30
0.0
 11
0.437279
 21
0.600024
 31
0.0
  0
LINE
  5
D7
100
AcDbEntity
  8
0
  6
solid
 62
     3
100
AcDbLine
 10
0.437279
 20
0.600024
 30
0.0
 11
0.44892
 21
0.578758
 31
0.0
  0
LINE
  5
D8
100
AcDbEntity
  8
0
  6
solid
 62
     3
100
AcDbLine
 10
0.44892
 20
0.578758
 30
0.0
 11
0.459429
 21
0.552957
 31
0.0
  0
LINE
  5
D9
100
AcDbEntity
  8
0
  6
solid
 62
     3
100
AcDbLine
 10
0.476278
 20
0.550932
 30
0.0
 11
0.48863
 21
0.575557
 31
0.0
  0
LINE
  5
DA
100
AcDbEntity
  8
0
  6
solid
 62
     3
100
AcDbLine
 10
0.48863
 20
0.575557
 30
0.0
 11
0.501248
 21
0.596349
 31
0.0
  0
LINE
  5
DB
100
AcDbEntity
  8
0
  6
solid
 62
     3
100
AcDbLine
 10
0.501248
 20
0.596349
 30
0.0
 11
0.514434
 21
0.613557
 31
0.0
  0
LINE
  5
DC
100
AcDbEntity
  8
0
  6
solid
 62
     3
100
AcDbLine
 10
0.514434
 20
0.613557
 30
0.0
 11
0.528486
 21
0.627433
 31
0.0
  0
LINE
  5
DD
100
AcDbEntity
  8
0
  6
solid
 62
     3
100
AcDbLine
 10
0.528486
 20
0.627433
 30
0.0
 11
0.543705
 21
0.638225
 31
0.0
  0
LINE
  5
DE
100
AcDbEntity
  8
0
  6
solid
 62
     3
100
AcDbLine
 10
0.543705
 20
0.638225
 30
0.0
 11
0.560389
 21
0.646183
 31
0.0
  0
LINE
  5
DF
100
AcDbEntity
  8
0
  6
solid
 62
     3
100
AcDbLine
 10
0.560389
 20
0.646183
 30
0.0
 11
0.578839
 21
0.651558
 31
0.0
  0
LINE
  5
E0
100
AcDbEntity
  8
0
  6
solid
 62
     3
100
AcDbLine
 10
0.578839
 20
0.651558
 30
0.0
 11
0.599353
 21
0.6546
 31
0.0
  0
LINE
  5
E1
100
AcDbEntity
  8
0
  6
solid
 62
     3
100
AcDbLine
 10
0.599353
 20
0.6546
 30
0.0
 11
0.622233
 21
0.655559
 31
0.0
  0
LINE
  5
E2
100
AcDbEntity
  8
0
  6
solid
 62
     3
100
AcDbLine
 10
0.622233
 20
0.655559
 30
0.0
 11
1.175022
 21
0.655559
 31
0.0
  0
LINE
  5
E3
100
AcDbEntity
  8
0
  6
solid
 62
     3
100
AcDbLine
 10
1.175022
 20
0.655559
 30
0.0
 11
1.238199
 21
0.652284
 31
0.0
  0
LINE
  5
E4
100
AcDbEntity
  8
0
  6
solid
 62
     3
100
AcDbLine
 10
1.238199
 20
0.652284
 30
0.0
 11
1.294443
 21
0.642358
 31
0.0
  0
LINE
  5
E5
100
AcDbEntity
  8
0
  6
solid
 62
     3
100
AcDbLine
 10
1.294443
 20
0.642358
 30
0.0
 11
1.34382
 21
0.625633
 31
0.0
  0
LINE
  5
E6
100
AcDbEntity
  8
0
  6
solid
 62
     3
100
AcDbLine
 10
1.34382
 20
0.625633
 30
0.0
 11
1.386397
 21
0.601957
 31
0.0
  0
LINE
  5
E7
100
AcDbEntity
  8
0
  6
solid
 62
     3
100
AcDbLine
 10
1.386397
 20
0.601957
 30
0.0
 11
1.422241
 21
0.571182
 31
0.0
  0
LINE
  5
E8
100
AcDbEntity
  8
0
  6
solid
 62
     3
100
AcDbLine
 10
1.422241
 20
0.571182
 30
0.0
 11
1.451418
 21
0.533156
 31
0.0
  0
LINE
  5
E9
100
AcDbEntity
  8
0
  6
solid
 62
     3
100
AcDbLine
 10
1.451418
 20
0.533156
 30
0.0
 11
1.473995
 21
0.487731
 31
0.0
  0
LINE
  5
EA
100
AcDbEntity
  8
0
  6
solid
 62
     3
100
AcDbLine
 10
1.473995
 20
0.487731
 30
0.0
 11
1.490039
 21
0.434756
 31
0.0
  0
LINE
  5
EB
100
AcDbEntity
  8
0
  6
solid
 62
     3
100
AcDbLine
 10
1.490039
 20
0.434756
 30
0.0
 11
1.499616
 21
0.374081
 31
0.0
  0
LINE
  5
EC
100
AcDbEntity
  8
0
  6
solid
 62
     3
100
AcDbLine
 10
1.499616
 20
0.374081
 30
0.0
 11
1.502794
 21
0.305556
 31
0.0
  0
LINE
  5
ED
100
AcDbEntity
  8
0
  6
solid
 62
     3
100
AcDbLine
 10
1.502794
 20
0.305556
 30
0.0
 11
1.502794
 21
-0.355556
 31
0.0
  0
LINE
  5
EE
100
AcDbEntity
  8
0
  6
solid
 62
     3
100
AcDbLine
 10
1.502794
 20
-0.355556
 30
0.0
 11
1.503122
 21
-0.399951
 31
0.0
  0
LINE
  5
EF
100
AcDbEntity
  8
0
  6
solid
 62
     3
100
AcDbLine
 10
1.503122
 20
-0.399951
 30
0.0
 11
1.504084
 21
-0.440046
 31
0.0
  0
LINE
  5
F0
100
AcDbEntity
  8
0
  6
solid
 62
     3
100
AcDbLine
 10
1.504084
 20
-0.440046
 30
0.0
 11
1.505646
 21
-0.476207
 31
0.0
  0
LINE
  5
F1
100
AcDbEntity
  8
0
  6
solid
 62
     3
100
AcDbLine
 10
1.505646
 20
-0.476207
 30
0.0
 11
1.507775
 21
-0.508801
 31
0.0
  0
LINE
  5
F2
100
AcDbEntity
  8
0
  6
solid
 62
     3
100
AcDbLine
 10
1.507775
 20
-0.508801
 30
0.0
 11
1.510437
 21
-0.538196
 31
0.0
  0
LINE
  5
F3
100
AcDbEntity
  8
0
  6
solid
 62
     3
100
AcDbLine
 10
1.510437
 20
-0.538196
 30
0.0
 11
1.513599
 21
-0.564757
 31
0.0
  0
LINE
  5
F4
100
AcDbEntity
  8
0
  6
solid
 62
     3
100
AcDbLine
 10
1.513599
 20
-0.564757
 30
0.0
 11
1.517227
 21
-0.588851
 31
0.0
  0
LINE
  5
F5
100
AcDbEntity
  8
0
  6
solid
 62
     3
100
AcDbLine
 10
1.517227
 20
-0.588851
 30
0.0
 11
1.521287
 21
-0.610846
 31
0.0
  0
LINE
  5
F6
100
AcDbEntity
  8
0
  6
solid
 62
     3
100
AcDbLine
 10
1.521287
 20
-0.610846
 30
0.0
 11
1.525747
 21
-0.631108
 31
0.0
  0
LINE
  5
F7
100
AcDbEntity
  8
0
  6
solid
 62
     3
100
AcDbLine
 10
1.525747
 20
-0.631108
 30
0.0
 11
1.530572
 21
-0.650004
 31
0.0
  0
LINE
  5
F8
100
AcDbEntity
  8
0
  6
solid
 62
     3
100
AcDbLine
 10
1.530572
 20
-0.650004
 30
0.0
 11
0.991672
 21
-0.650004
 31
0.0
  0
LINE
  5
F9
100
AcDbEntity
  8
0
  6
solid
 62
     3
100
AcDbLine
 10
0.991672
 20
-0.650004
 30
0.0
 11
0.996504
 21
-0.631108
 31
0.0
  0
LINE
  5
FA
100
AcDbEntity
  8
0
  6
solid
 62
     3
100
AcDbLine
 10
0.996504
 20
-0.631108
 30
0.0
 11
1.000967
 21
-0.610846
 31
0.0
  0
LINE
  5
FB
100
AcDbEntity
  8
0
  6
solid
 62
     3
100
AcDbLine
 10
1.000967
 20
-0.610846
 30
0.0
 11
1.005029
 21
-0.588851
 31
0.0
  0
LINE
  5
FC
100
AcDbEntity
  8
0
  6
solid
 62
     3
100
AcDbLine
 10
1.005029
 20
-0.588851
 30
0.0
 11
1.008657
 21
-0.564757
 31
0.0
  0
LINE
  5
FD
100
AcDbEntity
  8
0
  6
solid
 62
     3
100
AcDbLine
 10
1.008657
 20
-0.564757
 30
0.0
 11
1.011817
 21
-0.538196
 31
0.0
  0
LINE
  5
FE
100
AcDbEntity
  8
0
  6
solid
 62
     3
100
AcDbLine
 10
1.011817
 20
-0.538196
 30
0.0
 11
1.014477
 21
-0.508801
 31
0.0
  0
LINE
  5
FF
100
AcDbEntity
  8
0
  6
solid
 62
     3
100
AcDbLine
 10
1.014477
 20
-0.508801
 30
0.0
 11
1.016603
 21
-0.476207
 31
0.0
  0
LINE
  5
100
100
AcDbEntity
  8
0
  6
solid
 62
     3
100
AcDbLine
 10
1.016603
 20
-0.476207
 30
0.0
 11
1.018162
 21
-0.440046
 31
0.0
  0
LINE
  5
101
100
AcDbEntity
  8
0
  6
solid
 62
     3
100
AcDbLine
 10
1.018162
 20
-0.440046
 30
0.0
 11
1.019122
 21
-0.399951
 31
0.0
  0
LINE
  5
102
100
AcDbEntity
  8
0
  6
solid
 62
     3
100
AcDbLine
 10
1.019122
 20
-0.399951
 30
0.0
 11
1.01945
 21
-0.355556
 31
0.0
  0
LINE
  5
103
100
AcDbEntity
  8
0
  6
solid
 62
     3
100
AcDbLine
 10
1.01945
 20
-0.355556
 30
0.0
 11
1.01945
 21
0.355557
 31
0.0
  0
LINE
  5
104
100
AcDbEntity
  8
0
  6
solid
 62
     3
100
AcDbLine
 10
1.01945
 20
0.355557
 30
0.0
 11
1.018842
 21
0.375077
 31
0.0
  0
LINE
  5
105
100
AcDbEntity
  8
0
  6
solid
 62
     3
100
AcDbLine
 10
1.018842
 20
0.375077
 30
0.0
 11
1.016919
 21
0.392046
 31
0.0
  0
LINE
  5
106
100
AcDbEntity
  8
0
  6
solid
 62
     3
100
AcDbLine
 10
1.016919
 20
0.392046
 30
0.0
 11
1.013529
 21
0.406582
 31
0.0
  0
LINE
  5
107
100
AcDbEntity
  8
0
  6
solid
 62
     3
100
AcDbLine
 10
1.013529
 20
0.406582
 30
0.0
 11
1.008523
 21
0.418801
 31
0.0
  0
LINE
  5
108
100
AcDbEntity
  8
0
  6
solid
 62
     3
100
AcDbLine
 10
1.008523
 20
0.418801
 30
0.0
 11
1.00175
 21
0.42882
 31
0.0
  0
LINE
  5
109
100
AcDbEntity
  8
0
  6
solid
 62
     3
100
AcDbLine
 10
1.00175
 20
0.42882
 30
0.0
 11
0.993059
 21
0.436756
 31
0.0
  0
LINE
  5
10A
100
AcDbEntity
  8
0
  6
solid
 62
     3
100
AcDbLine
 10
0.993059
 20
0.436756
 30
0.0
 11
0.982301
 21
0.442725
 31
0.0
  0
LINE
  5
10B
100
AcDbEntity
  8
0
  6
solid
 62
     3
100
AcDbLine
 10
0.982301
 20
0.442725
 30
0.0
 11
0.969325
 21
0.446844
 31
0.0
  0
LINE
  5
10C
100
AcDbEntity
  8
0
  6
solid
 62
     3
100
AcDbLine
 10
0.969325
 20
0.446844
 30
0.0
 11
0.95398
 21
0.44923
 31
0.0
  0
LINE
  5
10D
100
AcDbEntity
  8
0
  6
solid
 62
     3
100
AcDbLine
 10
0.95398
 20
0.44923
 30
0.0
 11
0.936116
 21
0.449999
 31
0.0
  0
LINE
  5
10E
100
AcDbEntity
  8
0
  6
solid
 62
     3
100
AcDbLine
 10
0.936116
 20
0.449999
 30
0.0
 11
0.566677
 21
0.449999
 31
0.0
  0
LINE
  5
10F
100
AcDbEntity
  8
0
  6
solid
 62
     3
100
AcDbLine
 10
0.566677
 20
0.449999
 30
0.0
 11
0.54882
 21
0.44923
 31
0.0
  0
LINE
  5
110
100
AcDbEntity
  8
0
  6
solid
 62
     3
100
AcDbLine
 10
0.54882
 20
0.44923
 30
0.0
 11
0.53348
 21
0.446844
 31
0.0
  0
LINE
  5
111
100
AcDbEntity
  8
0
  6
solid
 62
     3
100
AcDbLine
 10
0.53348
 20
0.446844
 30
0.0
 11
0.520505
 21
0.442725
 31
0.0
  0
LINE
  5
112
100
AcDbEntity
  8
0
  6
solid
 62
     3
100
AcDbLine
 10
0.520505
 20
0.442725
 30
0.0
 11
0.509746
 21
0.436756
 31
0.0
  0
LINE
  5
113
100
AcDbEntity
  8
0
  6
solid
 62
     3
100
AcDbLine
 10
0.509746
 20
0.436756
 30
0.0
 11
0.501054
 21
0.42882
 31
0.0
  0
LINE
  5
114
100
AcDbEntity
  8
0
  6
solid
 62
     3
100
AcDbLine
 10
0.501054
 20
0.42882
 30
0.0
 11
0.494279
 21
0.418801
 31
0.0
  0
LINE
  5
115
100
AcDbEntity
  8
0
  6
solid
 62
     3
100
AcDbLine
 10
0.494279
 20
0.418801
 30
0.0
 11
0.48927
 21
0.406582
 31
0.0
  0
LINE
  5
116
100
AcDbEntity
  8
0
  6
solid
 62
     3
100
AcDbLine
 10
0.48927
 20
0.406582
 30
0.0
 11
0.485878
 21
0.392046
 31
0.0
  0
LINE
  5
117
100
AcDbEntity
  8
0
  6
solid
 62
     3
100
AcDbLine
 10
0.485878
 20
0.392046
 30
0.0
 11
0.483953
 21
0.375077
 31
0.0
  0
LINE
  5
118
100
AcDbEntity
  8
0
  6
solid
 62
     3
100
AcDbLine
 10
0.483953
 20
0.375077
 30
0.0
 11
0.483344
 21
0.355557
 31
0.0
  0
LINE
  5
119
100
AcDbEntity
  8
0
  6
solid
 62
     3
100
AcDbLine
 10
0.483344
 20
0.355557
 30
0.0
 11
0.483344
 21
-0.355556
 31
0.0
  0
LINE
  5
11A
100
AcDbEntity
  8
0
  6
solid
 62
     3
100
AcDbLine
 10
0.483344
 20
-0.355556
 30
0.0
 11
0.483672
 21
-0.399951
 31
0.0
  0
LINE
  5
11B
100
AcDbEntity
  8
0
  6
solid
 62
     3
100
AcDbLine
 10
0.483672
 20
-0.399951
 30
0.0
 11
0.484634
 21
-0.440046
 31
0.0
  0
LINE
  5
11C
100
AcDbEntity
  8
0
  6
solid
 62
     3
100
AcDbLine
 10
0.484634
 20
-0.440046
 30
0.0
 11
0.486196
 21
-0.476207
 31
0.0
  0
LINE
  5
11D
100
AcDbEntity
  8
0
  6
solid
 62
     3
100
AcDbLine
 10
0.486196
 20
-0.476207
 30
0.0
 11
0.488325
 21
-0.508801
 31
0.0
  0
LINE
  5
11E
100
AcDbEntity
  8
0
  6
solid
 62
     3
100
AcDbLine
 10
0.488325
 20
-0.508801
 30
0.0
 11
0.490987
 21
-0.538196
 31
0.0
  0
LINE
  5
11F
100
AcDbEntity
  8
0
  6
solid
 62
     3
100
AcDbLine
 10
0.490987
 20
-0.538196
 30
0.0
 11
0.494149
 21
-0.564757
 31
0.0
  0
LINE
  5
120
100
AcDbEntity
  8
0
  6
solid
 62
     3
100
AcDbLine
 10
0.494149
 20
-0.564757
 30
0.0
 11
0.497777
 21
-0.588851
 31
0.0
  0
LINE
  5
121
100
AcDbEntity
  8
0
  6
solid
 62
     3
100
AcDbLine
 10
0.497777
 20
-0.588851
 30
0.0
 11
0.501837
 21
-0.610846
 31
0.0
  0
LINE
  5
122
100
AcDbEntity
  8
0
  6
solid
 62
     3
100
AcDbLine
 10
0.501837
 20
-0.610846
 30
0.0
 11
0.506297
 21
-0.631108
 31
0.0
  0
LINE
  5
123
100
AcDbEntity
  8
0
  6
solid
 62
     3
100
AcDbLine
 10
0.506297
 20
-0.631108
 30
0.0
 11
0.511122
 21
-0.650004
 31
0.0
  0
LINE
  5
124
100
AcDbEntity
  8
0
  6
solid
 62
     3
100
AcDbLine
 10
0.511122
 20
-0.650004
 30
0.0
 11
-0.027778
 21
-0.650004
 31
0.0
  0
LINE
  5
125
100
AcDbEntity
  8
0
  6
solid
 62
     3
100
AcDbLine
 10
-0.027778
 20
-0.650004
 30
0.0
 11
-0.022946
 21
-0.631108
 31
0.0
  0
LINE
  5
126
100
AcDbEntity
  8
0
  6
solid
 62
     3
100
AcDbLine
 10
-0.022946
 20
-0.631108
 30
0.0
 11
-0.018483
 21
-0.610846
 31
0.0
  0
LINE
  5
127
100
AcDbEntity
  8
0
  6
solid
 62
     3
100
AcDbLine
 10
-0.018483
 20
-0.610846
 30
0.0
 11
-0.014421
 21
-0.588851
 31
0.0
  0
LINE
  5
128
100
AcDbEntity
  8
0
  6
solid
 62
     3
100
AcDbLine
 10
-0.014421
 20
-0.588851
 30
0.0
 11
-0.010793
 21
-0.564757
 31
0.0
  0
LINE
  5
129
100
AcDbEntity
  8
0
  6
solid
 62
     3
100
AcDbLine
 10
-0.010793
 20
-0.564757
 30
0.0
 11
-0.007633
 21
-0.538196
 31
0.0
  0
LINE
  5
12A
100
AcDbEntity
  8
0
  6
solid
 62
     3
100
AcDbLine
 10
-0.007633
 20
-0.538196
 30
0.0
 11
-0.004973
 21
-0.508801
 31
0.0
  0
LINE
  5
12B
100
AcDbEntity
  8
0
  6
solid
 62
     3
100
AcDbLine
 10
-0.004973
 20
-0.508801
 30
0.0
 11
-0.002847
 21
-0.476207
 31
0.0
  0
LINE
  5
12C
100
AcDbEntity
  8
0
  6
solid
 62
     3
100
AcDbLine
 10
-0.002847
 20
-0.476207
 30
0.0
 11
-0.001287
 21
-0.440046
 31
0.0
  0
LINE
  5
12D
100
AcDbEntity
  8
0
  6
solid
 62
     3
100
AcDbLine
 10
-0.001287
 20
-0.440046
 30
0.0
 11
-0.000327
 21
-0.399951
 31
0.0
  0
LINE
  5
12E
100
AcDbEntity
  8
0
  6
solid
 62
     3
100
AcDbLine
 10
-0.000327
 20
-0.399951
 30
0.0
 11
0.0
 21
-0.355556
 31
0.0
  0
LINE
  5
12F
100
AcDbEntity
  8
0
  6
solid
 62
     3
100
AcDbLine
 10
0.0
 20
-0.355556
 30
0.0
 11
0.0
 21
0.355557
 31
0.0
  0
LINE
  5
130
100
AcDbEntity
  8
0
  6
solid
 62
     3
100
AcDbLine
 10
0.0
 20
0.355557
 30
0.0
 11
-0.000608
 21
0.375077
 31
0.0
  0
LINE
  5
131
100
AcDbEntity
  8
0
  6
solid
 62
     3
100
AcDbLine
 10
-0.000608
 20
0.375077
 30
0.0
 11
-0.002531
 21
0.392046
 31
0.0
  0
LINE
  5
132
100
AcDbEntity
  8
0
  6
solid
 62
     3
100
AcDbLine
 10
-0.002531
 20
0.392046
 30
0.0
 11
-0.005921
 21
0.406582
 31
0.0
  0
LINE
  5
133
100
AcDbEntity
  8
0
  6
solid
 62
     3
100
AcDbLine
 10
-0.005921
 20
0.406582
 30
0.0
 11
-0.010927
 21
0.418801
 31
0.0
  0
LINE
  5
134
100
AcDbEntity
  8
0
  6
solid
 62
     3
100
AcDbLine
 10
-0.010927
 20
0.418801
 30
0.0
 11
-0.0177
 21
0.42882
 31
0.0
  0
LINE
  5
135
100
AcDbEntity
  8
0
  6
solid
 62
     3
100
AcDbLine
 10
-0.0177
 20
0.42882
 30
0.0
 11
-0.026391
 21
0.436756
 31
0.0
  0
LINE
  5
136
100
AcDbEntity
  8
0
  6
solid
 62
     3
100
AcDbLine
 10
-0.026391
 20
0.436756
 30
0.0
 11
-0.037149
 21
0.442725
 31
0.0
  0
LINE
  5
137
100
AcDbEntity
  8
0
  6
solid
 62
     3
100
AcDbLine
 10
-0.037149
 20
0.442725
 30
0.0
 11
-0.050125
 21
0.446844
 31
0.0
  0
LINE
  5
138
100
AcDbEntity
  8
0
  6
solid
 62
     3
100
AcDbLine
 10
-0.050125
 20
0.446844
 30
0.0
 11
-0.06547
 21
0.44923
 31
0.0
  0
LINE
  5
139
100
AcDbEntity
  8
0
  6
solid
 62
     3
100
AcDbLine
 10
-0.06547
 20
0.44923
 30
0.0
 11
-0.083333
 21
0.449999
 31
0.0
  0
LINE
  5
13A
100
AcDbEntity
  8
0
  6
solid
 62
     3
100
AcDbLine
 10
-0.083333
 20
0.449999
 30
0.0
 11
-0.452772
 21
0.449999
 31
0.0
  0
LINE
  5
13B
100
AcDbEntity
  8
0
  6
solid
 62
     3
100
AcDbLine
 10
-0.452772
 20
0.449999
 30
0.0
 11
-0.470629
 21
0.44923
 31
0.0
  0
LINE
  5
13C
100
AcDbEntity
  8
0
  6
solid
 62
     3
100
AcDbLine
 10
-0.470629
 20
0.44923
 30
0.0
 11
-0.48597
 21
0.446844
 31
0.0
  0
LINE
  5
13D
100
AcDbEntity
  8
0
  6
solid
 62
     3
100
AcDbLine
 10
-0.48597
 20
0.446844
 30
0.0
 11
-0.498945
 21
0.442725
 31
0.0
  0
LINE
  5
13E
100
AcDbEntity
  8
0
  6
solid
 62
     3
100
AcDbLine
 10
-0.498945
 20
0.442725
 30
0.0
 11
-0.509703
 21
0.436756
 31
0.0
  0
LINE
  5
13F
100
AcDbEntity
  8
0
  6
solid
 62
     3
100
AcDbLine
 10
-0.509703
 20
0.436756
 30
0.0
 11
-0.518395
 21
0.42882
 31
0.0
  0
LINE
  5
140
100
AcDbEntity
  8
0
  6
solid
 62
     3
100
AcDbLine
 10
-0.518395
 20
0.42882
 30
0.0
 11
-0.525171
 21
0.418801
 31
0.0
  0
LINE
  5
141
100
AcDbEntity
  8
0
  6
solid
 62
     3
100
AcDbLine
 10
-0.525171
 20
0.418801
 30
0.0
 11
-0.53018
 21
0.406582
 31
0.0
  0
LINE
  5
142
100
AcDbEntity
  8
0
  6
solid
 62
     3
100
AcDbLine
 10
-0.53018
 20
0.406582
 30
0.0
 11
-0.533572
 21
0.392046
 31
0.0
  0
LINE
  5
143
100
AcDbEntity
  8
0
  6
solid
 62
     3
100
AcDbLine
 10
-0.533572
 20
0.392046
 30
0.0
 11
-0.535497
 21
0.375077
 31
0.0
  0
LINE
  5
144
100
AcDbEntity
  8
0
  6
solid
 62
     3
100
AcDbLine
 10
-0.535497
 20
0.375077
 30
0.0
 11
-0.536106
 21
0.355557
 31
0.0
  0
LINE
  5
145
100
AcDbEntity
  8
0
  6
solid
 62
     3
100
AcDbLine
 10
-0.534816
 20
-0.440046
 30
0.0
 11
-0.533254
 21
-0.476207
 31
0.0
  0
LINE
  5
146
100
AcDbEntity
  8
0
  6
solid
 62
     3
100
AcDbLine
 10
-0.533254
 20
-0.476207
 30
0.0
 11
-0.531125
 21
-0.508801
 31
0.0
  0
LINE
  5
147
100
AcDbEntity
  8
0
  6
solid
 62
     3
100
AcDbLine
 10
-0.531125
 20
-0.508801
 30
0.0
 11
-0.528463
 21
-0.538196
 31
0.0
  0
LINE
  5
148
100
AcDbEntity
  8
0
  6
solid
 62
     3
100
AcDbLine
 10
-0.528463
 20
-0.538196
 30
0.0
 11
-0.525301
 21
-0.564757
 31
0.0
  0
LINE
  5
149
100
AcDbEntity
  8
0
  6
solid
 62
     3
100
AcDbLine
 10
-0.525301
 20
-0.564757
 30
0.0
 11
-0.521673
 21
-0.588851
 31
0.0
  0
LINE
  5
14A
100
AcDbEntity
  8
0
  6
solid
 62
     3
100
AcDbLine
 10
-0.521673
 20
-0.588851
 30
0.0
 11
-0.517613
 21
-0.610846
 31
0.0
  0
LINE
  5
14B
100
AcDbEntity
  8
0
  6
solid
 62
     3
100
AcDbLine
 10
-0.517613
 20
-0.610846
 30
0.0
 11
-0.513153
 21
-0.631108
 31
0.0
  0
LINE
  5
14C
100
AcDbEntity
  8
0
  6
solid
 62
     3
100
AcDbLine
 10
-0.513153
 20
-0.631108
 30
0.0
 11
-0.508328
 21
-0.650004
 31
0.0
  0
LINE
  5
14D
100
AcDbEntity
  8
0
  6
solid
 62
     3
100
AcDbLine
 10
-0.508328
 20
-0.650004
 30
0.0
 11
-1.047201
 21
-0.650004
 31
0.0
  0
LINE
  5
14E
100
AcDbEntity
  8
0
  6
solid
 62
     3
100
AcDbLine
 10
-1.047201
 20
-0.650004
 30
0.0
 11
-1.042375
 21
-0.631108
 31
0.0
  0
LINE
  5
14F
100
AcDbEntity
  8
0
  6
solid
 62
     3
100
AcDbLine
 10
-1.042375
 20
-0.631108
 30
0.0
 11
-1.037916
 21
-0.610846
 31
0.0
  0
LINE
  5
150
100
AcDbEntity
  8
0
  6
solid
 62
     3
100
AcDbLine
 10
-1.037916
 20
-0.610846
 30
0.0
 11
-1.033855
 21
-0.588851
 31
0.0
  0
LINE
  5
151
100
AcDbEntity
  8
0
  6
solid
 62
     3
100
AcDbLine
 10
-1.033855
 20
-0.588851
 30
0.0
 11
-1.030228
 21
-0.564757
 31
0.0
  0
LINE
  5
152
100
AcDbEntity
  8
0
  6
solid
 62
     3
100
AcDbLine
 10
-1.030228
 20
-0.564757
 30
0.0
 11
-1.027066
 21
-0.538196
 31
0.0
  0
LINE
  5
153
100
AcDbEntity
  8
0
  6
solid
 62
     3
100
AcDbLine
 10
-1.027066
 20
-0.538196
 30
0.0
 11
-1.024404
 21
-0.508801
 31
0.0
  0
LINE
  5
154
100
AcDbEntity
  8
0
  6
solid
 62
     3
100
AcDbLine
 10
-1.024404
 20
-0.508801
 30
0.0
 11
-1.022275
 21
-0.476207
 31
0.0
  0
LINE
  5
155
100
AcDbEntity
  8
0
  6
solid
 62
     3
100
AcDbLine
 10
-1.022275
 20
-0.476207
 30
0.0
 11
-1.020713
 21
-0.440046
 31
0.0
  0
LINE
  5
156
100
AcDbEntity
  8
0
  6
solid
 62
     3
100
AcDbLine
 10
-1.020713
 20
-0.440046
 30
0.0
 11
-1.019751
 21
-0.399951
 31
0.0
  0
LINE
  5
157
100
AcDbEntity
  8
0
  6
solid
 62
     3
100
AcDbLine
 10
-1.019751
 20
-0.399951
 30
0.0
 11
-1.019423
 21
-0.355556
 31
0.0
  0
LINE
  5
158
100
AcDbEntity
  8
0
  6
solid
 62
     3
100
AcDbLine
 10
-1.019423
 20
-0.355556
 30
0.0
 11
-1.019423
 21
0.361112
 31
0.0
  0
LINE
  5
159
100
AcDbEntity
  8
0
  6
solid
 62
     3
100
AcDbLine
 10
-1.019423
 20
0.361112
 30
0.0
 11
-1.019751
 21
0.405507
 31
0.0
  0
LINE
  5
15A
100
AcDbEntity
  8
0
  6
solid
 62
     3
100
AcDbLine
 10
-1.019751
 20
0.405507
 30
0.0
 11
-1.020713
 21
0.445602
 31
0.0
  0
LINE
  5
15B
100
AcDbEntity
  8
0
  6
solid
 62
     3
100
AcDbLine
 10
-1.020713
 20
0.445602
 30
0.0
 11
-1.022275
 21
0.481764
 31
0.0
  0
LINE
  5
15C
100
AcDbEntity
  8
0
  6
solid
 62
     3
100
AcDbLine
 10
-1.022275
 20
0.481764
 30
0.0
 11
-1.024404
 21
0.514359
 31
0.0
  0
LINE
  5
15D
100
AcDbEntity
  8
0
  6
solid
 62
     3
100
AcDbLine
 10
-1.024404
 20
0.514359
 30
0.0
 11
-1.027066
 21
0.543753
 31
0.0
  0
LINE
  5
15E
100
AcDbEntity
  8
0
  6
solid
 62
     3
100
AcDbLine
 10
-1.027066
 20
0.543753
 30
0.0
 11
-1.030228
 21
0.570315
 31
0.0
  0
LINE
  5
15F
100
AcDbEntity
  8
0
  6
solid
 62
     3
100
AcDbLine
 10
-1.030228
 20
0.570315
 30
0.0
 11
-1.033855
 21
0.594409
 31
0.0
  0
LINE
  5
160
100
AcDbEntity
  8
0
  6
solid
 62
     3
100
AcDbLine
 10
-1.033855
 20
0.594409
 30
0.0
 11
-1.037916
 21
0.616404
 31
0.0
  0
LINE
  5
161
100
AcDbEntity
  8
0
  6
solid
 62
     3
100
AcDbLine
 10
-1.037916
 20
0.616404
 30
0.0
 11
-1.042375
 21
0.636665
 31
0.0
  0
LINE
  5
162
100
AcDbEntity
  8
0
  6
solid
 62
     3
100
AcDbLine
 10
-1.042375
 20
0.636665
 30
0.0
 11
-1.047201
 21
0.655559
 31
0.0
  0
LINE
  5
163
100
AcDbEntity
  8
0
  6
solid
 62
     3
100
AcDbLine
 10
-1.047201
 20
0.655559
 30
0.0
 11
-0.563884
 21
0.655559
 31
0.0
  0
LINE
  5
164
100
AcDbEntity
  8
0
  6
solid
 62
     3
100
AcDbLine
 10
-0.563884
 20
0.655559
 30
0.0
 11
-1.047201
 21
0.655559
 31
0.0
  0
LINE
  5
165
100
AcDbEntity
  8
0
  6
solid
 62
     3
100
AcDbLine
 10
-1.047201
 20
0.655559
 30
0.0
 11
-0.563884
 21
0.655559
 31
0.0
  0
LINE
  5
166
100
AcDbEntity
  8
0
  6
solid
 62
     3
100
AcDbLine
 10
3.197238
 20
-0.358337
 30
0.0
 11
3.193905
 21
-0.413754
 31
0.0
  0
LINE
  5
167
100
AcDbEntity
  8
0
  6
solid
 62
     3
100
AcDbLine
 10
3.193905
 20
-0.413754
 30
0.0
 11
3.183905
 21
-0.463337
 31
0.0
  0
LINE
  5
168
100
AcDbEntity
  8
0
  6
solid
 62
     3
100
AcDbLine
 10
3.183905
 20
-0.463337
 30
0.0
 11
3.167238
 21
-0.507087
 31
0.0
  0
LINE
  5
169
100
AcDbEntity
  8
0
  6
solid
 62
     3
100
AcDbLine
 10
3.167238
 20
-0.507087
 30
0.0
 11
3.143905
 21
-0.545004
 31
0.0
  0
LINE
  5
16A
100
AcDbEntity
  8
0
  6
solid
 62
     3
100
AcDbLine
 10
3.143905
 20
-0.545004
 30
0.0
 11
3.113905
 21
-0.577087
 31
0.0
  0
LINE
  5
16B
100
AcDbEntity
  8
0
  6
solid
 62
     3
100
AcDbLine
 10
3.113905
 20
-0.577087
 30
0.0
 11
3.077238
 21
-0.603337
 31
0.0
  0
LINE
  5
16C
100
AcDbEntity
  8
0
  6
solid
 62
     3
100
AcDbLine
 10
3.077238
 20
-0.603337
 30
0.0
 11
3.033905
 21
-0.623754
 31
0.0
  0
LINE
  5
16D
100
AcDbEntity
  8
0
  6
solid
 62
     3
100
AcDbLine
 10
3.033905
 20
-0.623754
 30
0.0
 11
2.983905
 21
-0.638337
 31
0.0
  0
LINE
  5
16E
100
AcDbEntity
  8
0
  6
solid
 62
     3
100
AcDbLine
 10
2.983905
 20
-0.638337
 30
0.0
 11
2.927238
 21
-0.647087
 31
0.0
  0
LINE
  5
16F
100
AcDbEntity
  8
0
  6
solid
 62
     3
100
AcDbLine
 10
2.927238
 20
-0.647087
 30
0.0
 11
2.863905
 21
-0.650004
 31
0.0
  0
LINE
  5
170
100
AcDbEntity
  8
0
  6
solid
 62
     3
100
AcDbLine
 10
2.863905
 20
-0.650004
 30
0.0
 11
1.752794
 21
-0.650004
 31
0.0
  0
LINE
  5
171
100
AcDbEntity
  8
0
  6
solid
 62
     3
100
AcDbLine
 10
1.752794
 20
-0.650004
 30
0.0
 11
1.716688
 21
-0.425001
 31
0.0
  0
LINE
  5
172
100
AcDbEntity
  8
0
  6
solid
 62
     3
100
AcDbLine
 10
1.716688
 20
-0.425001
 30
0.0
 11
1.739654
 21
-0.431931
 31
0.0
  0
LINE
  5
173
100
AcDbEntity
  8
0
  6
solid
 62
     3
100
AcDbLine
 10
1.739654
 20
-0.431931
 30
0.0
 11
1.762419
 21
-0.437778
 31
0.0
  0
LINE
  5
174
100
AcDbEntity
  8
0
  6
solid
 62
     3
100
AcDbLine
 10
1.762419
 20
-0.437778
 30
0.0
 11
1.785785
 21
-0.442625
 31
0.0
  0
LINE
  5
175
100
AcDbEntity
  8
0
  6
solid
 62
     3
100
AcDbLine
 10
1.785785
 20
-0.442625
 30
0.0
 11
1.810552
 21
-0.446556
 31
0.0
  0
LINE
  5
176
100
AcDbEntity
  8
0
  6
solid
 62
     3
100
AcDbLine
 10
1.810552
 20
-0.446556
 30
0.0
 11
1.837518
 21
-0.449654
 31
0.0
  0
LINE
  5
177
100
AcDbEntity
  8
0
  6
solid
 62
     3
100
AcDbLine
 10
1.837518
 20
-0.449654
 30
0.0
 11
1.867483
 21
-0.452002
 31
0.0
  0
LINE
  5
178
100
AcDbEntity
  8
0
  6
solid
 62
     3
100
AcDbLine
 10
1.867483
 20
-0.452002
 30
0.0
 11
1.901248
 21
-0.453683
 31
0.0
  0
LINE
  5
179
100
AcDbEntity
  8
0
  6
solid
 62
     3
100
AcDbLine
 10
1.901248
 20
-0.453683
 30
0.0
 11
1.939613
 21
-0.454781
 31
0.0
  0
LINE
  5
17A
100
AcDbEntity
  8
0
  6
solid
 62
     3
100
AcDbLine
 10
1.939613
 20
-0.454781
 30
0.0
 11
1.983376
 21
-0.455378
 31
0.0
  0
LINE
  5
17B
100
AcDbEntity
  8
0
  6
solid
 62
     3
100
AcDbLine
 10
1.983376
 20
-0.455378
 30
0.0
 11
2.033339
 21
-0.455559
 31
0.0
  0
LINE
  5
17C
100
AcDbEntity
  8
0
  6
solid
 62
     3
100
AcDbLine
 10
2.033339
 20
-0.455559
 30
0.0
 11
2.622233
 21
-0.455559
 31
0.0
  0
LINE
  5
17D
100
AcDbEntity
  8
0
  6
solid
 62
     3
100
AcDbLine
 10
2.622233
 20
-0.455559
 30
0.0
 11
2.640635
 21
-0.454573
 31
0.0
  0
LINE
  5
17E
100
AcDbEntity
  8
0
  6
solid
 62
     3
100
AcDbLine
 10
2.640635
 20
-0.454573
 30
0.0
 11
2.657454
 21
-0.45167
 31
0.0
  0
LINE
  5
17F
100
AcDbEntity
  8
0
  6
solid
 62
     3
100
AcDbLine
 10
2.657454
 20
-0.45167
 30
0.0
 11
2.672607
 21
-0.446933
 31
0.0
  0
LINE
  5
180
100
AcDbEntity
  8
0
  6
solid
 62
     3
100
AcDbLine
 10
2.672607
 20
-0.446933
 30
0.0
 11
2.68601
 21
-0.440446
 31
0.0
  0
LINE
  5
181
100
AcDbEntity
  8
0
  6
solid
 62
     3
100
AcDbLine
 10
2.68601
 20
-0.440446
 30
0.0
 11
2.697581
 21
-0.432293
 31
0.0
  0
LINE
  5
182
100
AcDbEntity
  8
0
  6
solid
 62
     3
100
AcDbLine
 10
2.697581
 20
-0.432293
 30
0.0
 11
2.707235
 21
-0.422556
 31
0.0
  0
LINE
  5
183
100
AcDbEntity
  8
0
  6
solid
 62
     3
100
AcDbLine
 10
2.707235
 20
-0.422556
 30
0.0
 11
2.714889
 21
-0.41132
 31
0.0
  0
LINE
  5
184
100
AcDbEntity
  8
0
  6
solid
 62
     3
100
AcDbLine
 10
2.714889
 20
-0.41132
 30
0.0
 11
2.72046
 21
-0.398667
 31
0.0
  0
LINE
  5
185
100
AcDbEntity
  8
0
  6
solid
 62
     3
100
AcDbLine
 10
2.72046
 20
-0.398667
 30
0.0
 11
2.723863
 21
-0.384681
 31
0.0
  0
LINE
  5
186
100
AcDbEntity
  8
0
  6
solid
 62
     3
100
AcDbLine
 10
2.723863
 20
-0.384681
 30
0.0
 11
2.725016
 21
-0.369445
 31
0.0
  0
LINE
  5
187
100
AcDbEntity
  8
0
  6
solid
 62
     3
100
AcDbLine
 10
2.725016
 20
-0.369445
 30
0.0
 11
2.725016
 21
-0.297234
 31
0.0
  0
LINE
  5
188
100
AcDbEntity
  8
0
  6
solid
 62
     3
100
AcDbLine
 10
2.725016
 20
-0.297234
 30
0.0
 11
2.723863
 21
-0.281995
 31
0.0
  0
LINE
  5
189
100
AcDbEntity
  8
0
  6
solid
 62
     3
100
AcDbLine
 10
2.723863
 20
-0.281995
 30
0.0
 11
2.72046
 21
-0.268007
 31
0.0
  0
LINE
  5
18A
100
AcDbEntity
  8
0
  6
solid
 62
     3
100
AcDbLine
 10
2.72046
 20
-0.268007
 30
0.0
 11
2.714889
 21
-0.255352
 31
0.0
  0
LINE
  5
18B
100
AcDbEntity
  8
0
  6
solid
 62
     3
100
AcDbLine
 10
2.714889
 20
-0.255352
 30
0.0
 11
2.707235
 21
-0.244115
 31
0.0
  0
LINE
  5
18C
100
AcDbEntity
  8
0
  6
solid
 62
     3
100
AcDbLine
 10
2.707235
 20
-0.244115
 30
0.0
 11
2.697581
 21
-0.234378
 31
0.0
  0
LINE
  5
18D
100
AcDbEntity
  8
0
  6
solid
 62
     3
100
AcDbLine
 10
2.697581
 20
-0.234378
 30
0.0
 11
2.68601
 21
-0.226225
 31
0.0
  0
LINE
  5
18E
100
AcDbEntity
  8
0
  6
solid
 62
     3
100
AcDbLine
 10
2.68601
 20
-0.226225
 30
0.0
 11
2.672607
 21
-0.219738
 31
0.0
  0
LINE
  5
18F
100
AcDbEntity
  8
0
  6
solid
 62
     3
100
AcDbLine
 10
2.672607
 20
-0.219738
 30
0.0
 11
2.657454
 21
-0.215002
 31
0.0
  0
LINE
  5
190
100
AcDbEntity
  8
0
  6
solid
 62
     3
100
AcDbLine
 10
2.657454
 20
-0.215002
 30
0.0
 11
2.640635
 21
-0.212099
 31
0.0
  0
LINE
  5
191
100
AcDbEntity
  8
0
  6
solid
 62
     3
100
AcDbLine
 10
2.640635
 20
-0.212099
 30
0.0
 11
2.622233
 21
-0.211113
 31
0.0
  0
LINE
  5
192
100
AcDbEntity
  8
0
  6
solid
 62
     3
100
AcDbLine
 10
2.622233
 20
-0.211113
 30
0.0
 11
2.008355
 21
-0.211113
 31
0.0
  0
LINE
  5
193
100
AcDbEntity
  8
0
  6
solid
 62
     3
100
AcDbLine
 10
2.008355
 20
-0.211113
 30
0.0
 11
1.951431
 21
-0.207683
 31
0.0
  0
LINE
  5
194
100
AcDbEntity
  8
0
  6
solid
 62
     3
100
AcDbLine
 10
1.951431
 20
-0.207683
 30
0.0
 11
1.900641
 21
-0.197335
 31
0.0
  0
LINE
  5
195
100
AcDbEntity
  8
0
  6
solid
 62
     3
100
AcDbLine
 10
1.900641
 20
-0.197335
 30
0.0
 11
1.855951
 21
-0.179988
 31
0.0
  0
LINE
  5
196
100
AcDbEntity
  8
0
  6
solid
 62
     3
100
AcDbLine
 10
1.855951
 20
-0.179988
 30
0.0
 11
1.817328
 21
-0.155557
 31
0.0
  0
LINE
  5
197
100
AcDbEntity
  8
0
  6
solid
 62
     3
100
AcDbLine
 10
1.817328
 20
-0.155557
 30
0.0
 11
1.784739
 21
-0.123959
 31
0.0
  0
LINE
  5
198
100
AcDbEntity
  8
0
  6
solid
 62
     3
100
AcDbLine
 10
1.784739
 20
-0.123959
 30
0.0
 11
1.75815
 21
-0.085112
 31
0.0
  0
LINE
  5
199
100
AcDbEntity
  8
0
  6
solid
 62
     3
100
AcDbLine
 10
1.75815
 20
-0.085112
 30
0.0
 11
1.737527
 21
-0.038931
 31
0.0
  0
LINE
  5
19A
100
AcDbEntity
  8
0
  6
solid
 62
     3
100
AcDbLine
 10
1.737527
 20
-0.038931
 30
0.0
 11
1.722838
 21
0.014666
 31
0.0
  0
LINE
  5
19B
100
AcDbEntity
  8
0
  6
solid
 62
     3
100
AcDbLine
 10
1.722838
 20
0.014666
 30
0.0
 11
1.71405
 21
0.075763
 31
0.0
  0
LINE
  5
19C
100
AcDbEntity
  8
0
  6
solid
 62
     3
100
AcDbLine
 10
1.71405
 20
0.075763
 30
0.0
 11
1.711127
 21
0.144444
 31
0.0
  0
LINE
  5
19D
100
AcDbEntity
  8
0
  6
solid
 62
     3
100
AcDbLine
 10
1.711127
 20
0.144444
 30
0.0
 11
1.711127
 21
0.302776
 31
0.0
  0
LINE
  5
19E
100
AcDbEntity
  8
0
  6
solid
 62
     3
100
AcDbLine
 10
1.711127
 20
0.302776
 30
0.0
 11
1.71405
 21
0.37138
 31
0.0
  0
LINE
  5
19F
100
AcDbEntity
  8
0
  6
solid
 62
     3
100
AcDbLine
 10
1.71405
 20
0.37138
 30
0.0
 11
1.722838
 21
0.432267
 31
0.0
  0
LINE
  5
1A0
100
AcDbEntity
  8
0
  6
solid
 62
     3
100
AcDbLine
 10
1.722838
 20
0.432267
 30
0.0
 11
1.737527
 21
0.485554
 31
0.0
  0
LINE
  5
1A1
100
AcDbEntity
  8
0
  6
solid
 62
     3
100
AcDbLine
 10
1.737527
 20
0.485554
 30
0.0
 11
1.75815
 21
0.531358
 31
0.0
  0
LINE
  5
1A2
100
AcDbEntity
  8
0
  6
solid
 62
     3
100
AcDbLine
 10
1.75815
 20
0.531358
 30
0.0
 11
1.784739
 21
0.569794
 31
0.0
  0
LINE
  5
1A3
100
AcDbEntity
  8
0
  6
solid
 62
     3
100
AcDbLine
 10
1.784739
 20
0.569794
 30
0.0
 11
1.817328
 21
0.600981
 31
0.0
  0
LINE
  5
1A4
100
AcDbEntity
  8
0
  6
solid
 62
     3
100
AcDbLine
 10
1.817328
 20
0.600981
 30
0.0
 11
1.855951
 21
0.625034
 31
0.0
  0
LINE
  5
1A5
100
AcDbEntity
  8
0
  6
solid
 62
     3
100
AcDbLine
 10
1.855951
 20
0.625034
 30
0.0
 11
1.900641
 21
0.64207
 31
0.0
  0
LINE
  5
1A6
100
AcDbEntity
  8
0
  6
solid
 62
     3
100
AcDbLine
 10
1.900641
 20
0.64207
 30
0.0
 11
1.951431
 21
0.652206
 31
0.0
  0
LINE
  5
1A7
100
AcDbEntity
  8
0
  6
solid
 62
     3
100
AcDbLine
 10
1.951431
 20
0.652206
 30
0.0
 11
2.008355
 21
0.655559
 31
0.0
  0
LINE
  5
1A8
100
AcDbEntity
  8
0
  6
solid
 62
     3
100
AcDbLine
 10
2.008355
 20
0.655559
 30
0.0
 11
3.161133
 21
0.655559
 31
0.0
  0
LINE
  5
1A9
100
AcDbEntity
  8
0
  6
solid
 62
     3
100
AcDbLine
 10
3.161133
 20
0.655559
 30
0.0
 11
3.197238
 21
0.430556
 31
0.0
  0
LINE
  5
1AA
100
AcDbEntity
  8
0
  6
solid
 62
     3
100
AcDbLine
 10
3.197238
 20
0.430556
 30
0.0
 11
3.174273
 21
0.437486
 31
0.0
  0
LINE
  5
1AB
100
AcDbEntity
  8
0
  6
solid
 62
     3
100
AcDbLine
 10
3.174273
 20
0.437486
 30
0.0
 11
3.151507
 21
0.443333
 31
0.0
  0
LINE
  5
1AC
100
AcDbEntity
  8
0
  6
solid
 62
     3
100
AcDbLine
 10
3.151507
 20
0.443333
 30
0.0
 11
3.128141
 21
0.44818
 31
0.0
  0
LINE
  5
1AD
100
AcDbEntity
  8
0
  6
solid
 62
     3
100
AcDbLine
 10
3.128141
 20
0.44818
 30
0.0
 11
3.103373
 21
0.452111
 31
0.0
  0
LINE
  5
1AE
100
AcDbEntity
  8
0
  6
solid
 62
     3
100
AcDbLine
 10
3.103373
 20
0.452111
 30
0.0
 11
3.076406
 21
0.455209
 31
0.0
  0
LINE
  5
1AF
100
AcDbEntity
  8
0
  6
solid
 62
     3
100
AcDbLine
 10
3.076406
 20
0.455209
 30
0.0
 11
3.046438
 21
0.457557
 31
0.0
  0
LINE
  5
1B0
100
AcDbEntity
  8
0
  6
solid
 62
     3
100
AcDbLine
 10
3.046438
 20
0.457557
 30
0.0
 11
3.012669
 21
0.459238
 31
0.0
  0
LINE
  5
1B1
100
AcDbEntity
  8
0
  6
solid
 62
     3
100
AcDbLine
 10
3.012669
 20
0.459238
 30
0.0
 11
2.9743
 21
0.460336
 31
0.0
  0
LINE
  5
1B2
100
AcDbEntity
  8
0
  6
solid
 62
     3
100
AcDbLine
 10
2.9743
 20
0.460336
 30
0.0
 11
2.930531
 21
0.460934
 31
0.0
  0
LINE
  5
1B3
100
AcDbEntity
  8
0
  6
solid
 62
     3
100
AcDbLine
 10
2.930531
 20
0.460934
 30
0.0
 11
2.880561
 21
0.461114
 31
0.0
  0
LINE
  5
1B4
100
AcDbEntity
  8
0
  6
solid
 62
     3
100
AcDbLine
 10
2.880561
 20
0.461114
 30
0.0
 11
2.26945
 21
0.461114
 31
0.0
  0
LINE
  5
1B5
100
AcDbEntity
  8
0
  6
solid
 62
     3
100
AcDbLine
 10
2.26945
 20
0.461114
 30
0.0
 11
2.252867
 21
0.460361
 31
0.0
  0
LINE
  5
1B6
100
AcDbEntity
  8
0
  6
solid
 62
     3
100
AcDbLine
 10
2.252867
 20
0.460361
 30
0.0
 11
2.2381
 21
0.458092
 31
0.0
  0
LINE
  5
1B7
100
AcDbEntity
  8
0
  6
solid
 62
     3
100
AcDbLine
 10
2.2381
 20
0.458092
 30
0.0
 11
2.225132
 21
0.454288
 31
0.0
  0
LINE
  5
1B8
100
AcDbEntity
  8
0
  6
solid
 62
     3
100
AcDbLine
 10
2.225132
 20
0.454288
 30
0.0
 11
2.213947
 21
0.448935
 31
0.0
  0
LINE
  5
1B9
100
AcDbEntity
  8
0
  6
solid
 62
     3
100
AcDbLine
 10
2.213947
 20
0.448935
 30
0.0
 11
2.204529
 21
0.442015
 31
0.0
  0
LINE
  5
1BA
100
AcDbEntity
  8
0
  6
solid
 62
     3
100
AcDbLine
 10
2.204529
 20
0.442015
 30
0.0
 11
2.19686
 21
0.433512
 31
0.0
  0
LINE
  5
1BB
100
AcDbEntity
  8
0
  6
solid
 62
     3
100
AcDbLine
 10
2.19686
 20
0.433512
 30
0.0
 11
2.190924
 21
0.423409
 31
0.0
  0
LINE
  5
1BC
100
AcDbEntity
  8
0
  6
solid
 62
     3
100
AcDbLine
 10
2.190924
 20
0.423409
 30
0.0
 11
2.186705
 21
0.41169
 31
0.0
  0
LINE
  5
1BD
100
AcDbEntity
  8
0
  6
solid
 62
     3
100
AcDbLine
 10
2.186705
 20
0.41169
 30
0.0
 11
2.184186
 21
0.398337
 31
0.0
  0
LINE
  5
1BE
100
AcDbEntity
  8
0
  6
solid
 62
     3
100
AcDbLine
 10
2.184186
 20
0.398337
 30
0.0
 11
2.18335
 21
0.383335
 31
0.0
  0
LINE
  5
1BF
100
AcDbEntity
  8
0
  6
solid
 62
     3
100
AcDbLine
 10
2.18335
 20
0.383335
 30
0.0
 11
2.18335
 21
0.322225
 31
0.0
  0
LINE
  5
1C0
100
AcDbEntity
  8
0
  6
solid
 62
     3
100
AcDbLine
 10
2.18335
 20
0.322225
 30
0.0
 11
2.184186
 21
0.307222
 31
0.0
  0
LINE
  5
1C1
100
AcDbEntity
  8
0
  6
solid
 62
     3
100
AcDbLine
 10
2.184186
 20
0.307222
 30
0.0
 11
2.186705
 21
0.293868
 31
0.0
  0
LINE
  5
1C2
100
AcDbEntity
  8
0
  6
solid
 62
     3
100
AcDbLine
 10
2.186705
 20
0.293868
 30
0.0
 11
2.190924
 21
0.282148
 31
0.0
  0
LINE
  5
1C3
100
AcDbEntity
  8
0
  6
solid
 62
     3
100
AcDbLine
 10
2.190924
 20
0.282148
 30
0.0
 11
2.19686
 21
0.272045
 31
0.0
  0
LINE
  5
1C4
100
AcDbEntity
  8
0
  6
solid
 62
     3
100
AcDbLine
 10
2.19686
 20
0.272045
 30
0.0
 11
2.204529
 21
0.263543
 31
0.0
  0
LINE
  5
1C5
100
AcDbEntity
  8
0
  6
solid
 62
     3
100
AcDbLine
 10
2.204529
 20
0.263543
 30
0.0
 11
2.213947
 21
0.256623
 31
0.0
  0
LINE
  5
1C6
100
AcDbEntity
  8
0
  6
solid
 62
     3
100
AcDbLine
 10
2.213947
 20
0.256623
 30
0.0
 11
2.225132
 21
0.251271
 31
0.0
  0
LINE
  5
1C7
100
AcDbEntity
  8
0
  6
solid
 62
     3
100
AcDbLine
 10
2.225132
 20
0.251271
 30
0.0
 11
2.2381
 21
0.247468
 31
0.0
  0
LINE
  5
1C8
100
AcDbEntity
  8
0
  6
solid
 62
     3
100
AcDbLine
 10
2.2381
 20
0.247468
 30
0.0
 11
2.252867
 21
0.245199
 31
0.0
  0
LINE
  5
1C9
100
AcDbEntity
  8
0
  6
solid
 62
     3
100
AcDbLine
 10
2.252867
 20
0.245199
 30
0.0
 11
2.26945
 21
0.244446
 31
0.0
  0
LINE
  5
1CA
100
AcDbEntity
  8
0
  6
solid
 62
     3
100
AcDbLine
 10
2.26945
 20
0.244446
 30
0.0
 11
2.863905
 21
0.244446
 31
0.0
  0
LINE
  5
1CB
100
AcDbEntity
  8
0
  6
solid
 62
     3
100
AcDbLine
 10
2.863905
 20
0.244446
 30
0.0
 11
2.927238
 21
0.24153
 31
0.0
  0
LINE
  5
1CC
100
AcDbEntity
  8
0
  6
solid
 62
     3
100
AcDbLine
 10
2.927238
 20
0.24153
 30
0.0
 11
2.983905
 21
0.23278
 31
0.0
  0
LINE
  5
1CD
100
AcDbEntity
  8
0
  6
solid
 62
     3
100
AcDbLine
 10
2.983905
 20
0.23278
 30
0.0
 11
3.033905
 21
0.218196
 31
0.0
  0
LINE
  5
1CE
100
AcDbEntity
  8
0
  6
solid
 62
     3
100
AcDbLine
 10
3.033905
 20
0.218196
 30
0.0
 11
3.077238
 21
0.19778
 31
0.0
  0
LINE
  5
1CF
100
AcDbEntity
  8
0
  6
solid
 62
     3
100
AcDbLine
 10
3.077238
 20
0.19778
 30
0.0
 11
3.113905
 21
0.17153
 31
0.0
  0
LINE
  5
1D0
100
AcDbEntity
  8
0
  6
solid
 62
     3
100
AcDbLine
 10
3.113905
 20
0.17153
 30
0.0
 11
3.143905
 21
0.139446
 31
0.0
  0
LINE
  5
1D1
100
AcDbEntity
  8
0
  6
solid
 62
     3
100
AcDbLine
 10
3.143905
 20
0.139446
 30
0.0
 11
3.167238
 21
0.10153
 31
0.0
  0
LINE
  5
1D2
100
AcDbEntity
  8
0
  6
solid
 62
     3
100
AcDbLine
 10
3.167238
 20
0.10153
 30
0.0
 11
3.183905
 21
0.05778
 31
0.0
  0
LINE
  5
1D3
100
AcDbEntity
  8
0
  6
solid
 62
     3
100
AcDbLine
 10
3.183905
 20
0.05778
 30
0.0
 11
3.193905
 21
0.008196
 31
0.0
  0
LINE
  5
1D4
100
AcDbEntity
  8
0
  6
solid
 62
     3
100
AcDbLine
 10
3.193905
 20
0.008196
 30
0.0
 11
3.197238
 21
-0.04722
 31
0.0
  0
LINE
  5
1D5
100
AcDbEntity
  8
0
  6
solid
 62
     3
100
AcDbLine
 10
3.197238
 20
-0.04722
 30
0.0
 11
3.197238
 21
-0.358337
 31
0.0
  0
LINE
  5
1D6
100
AcDbEntity
  8
0
  6
solid
 62
     3
100
AcDbLine
 10
3.197238
 20
-0.358337
 30
0.0
 11
3.197238
 21
-0.04722
 31
0.0
  0
LINE
  5
1D7
100
AcDbEntity
  8
0
  6
solid
 62
     3
100
AcDbLine
 10
3.197238
 20
-0.04722
 30
0.0
 11
3.197238
 21
-0.358337
 31
0.0
  0
LINE
  5
1D8
100
AcDbEntity
  8
0
  6
solid
 62
     3
100
AcDbLine
 10
-0.563884
 20
0.655558
 30
0.0
 11
-0.552762
 21
0.522224
 31
0.0
  0
LINE
  5
1D9
100
AcDbEntity
  8
0
  6
solid
 62
     3
100
AcDbLine
 10
-0.536106
 20
0.355557
 30
0.0
 11
-0.534816
 21
-0.440046
 31
0.0
  0
LINE
  5
1DA
100
AcDbEntity
  8
0
  6
solid
 62
     3
100
AcDbLine
 10
0.459429
 20
0.552957
 30
0.0
 11
0.467061
 21
0.529564
 31
0.0
  0
LINE
  5
1DB
100
AcDbEntity
  8
0
  6
solid
 62
     3
100
AcDbLine
 10
0.467061
 20
0.529564
 30
0.0
 11
0.476278
 21
0.550932
 31
0.0
  0
ENDSEC
  0
SECTION
  2
OBJECTS
  0
DICTIONARY
  5
19
100
AcDbDictionary
280
     0
281
     1
  3
ACAD_GROUP
350
1A
  3
ACAD_MLINESTYLE
350
1B
  3
ACAD_LAYOUT
350
1E
  3
ACAD_PLOTSETTINGS
350
22
  3
ACAD_PLOTSTYLENAME
350
1F
  3
ACAD_WIPEOUT_VARS
350
23
  0
DICTIONARY
  5
1A
102
{ACAD_REACTORS
330
19
102
}
100
AcDbDictionary
280
     0
281
     1
  0
DICTIONARY
  5
1B
102
{ACAD_REACTORS
330
19
102
}
100
AcDbDictionary
280
     0
281
     1
  3
Standard
350
1C
  0
MLINESTYLE
  5
1C
102
{ACAD_REACTORS
330
1B
102
}
100
AcDbMlineStyle
  2
Standard
 70
     0
  3

 62
     0
 51
90.0
 52
90.0
 71
     2
 49
0.5
 62
   256
  6
BYLAYER
 49
-0.5
 62
   256
  6
BYLAYER
  0
ACDBDICTIONARYWDFLT
  5
1F
102
{ACAD_REACTORS
330
19
102
}
100
AcDbDictionary
281
     1
  3
Normal
350
1D
100
AcDbDictionaryWithDefault
340
1D
  0
ACDBPLACEHOLDER
  5
1D
102
{ACAD_REACTORS
330
1F
102
}
  0
LAYOUT
  5
20
102
{ACAD_REACTORS
330
1E
102
}
100
AcDbPlotSettings
  1

  2

  4

  6

 40
0.0
 41
0.0
 42
0.0
 43
0.0
 44
0.0
 45
0.0
 46
0.0
 47
0.0
 48
0.0
 49
0.0
140
0.0
141
0.0
142
1.0
143
1.0
 70
  1024
 72
     0
 73
     0
 74
     0
  7

 75
     0
147
1.0
148
0.0
149
0.0
100
AcDbLayout
  1
Model
 70
     0
 71
     0
 10
0.0
 20
0.0
 11
0.0
 21
0.0
 12
0.0
 22
0.0
 32
0.0
 14
0.0
 24
0.0
 34
0.0
 15
0.0
 25
0.0
 35
0.0
146
0.0
 13
0.0
 23
0.0
 33
0.0
 16
0.0
 26
0.0
 36
0.0
 17
0.0
 27
0.0
 37
0.0
 76
     0
330
A
331
0
345
0
346
0
  0
LAYOUT
  5
21
102
{ACAD_REACTORS
330
1E
102
}
100
AcDbPlotSettings
  1

  2

  4

  6

 40
0.0
 41
0.0
 42
0.0
 43
0.0
 44
0.0
 45
0.0
 46
0.0
 47
0.0
 48
0.0
 49
0.0
140
0.0
141
0.0
142
1.0
143
1.0
 70
     0
 72
     0
 73
     0
 74
     0
  7

 75
     0
147
1.0
148
0.0
149
0.0
100
AcDbLayout
  1
Layout1
 70
     0
 71
     0
 10
0.0
 20
0.0
 11
0.0
 21
0.0
 12
0.0
 22
0.0
 32
0.0
 14
0.0
 24
0.0
 34
0.0
 15
0.0
 25
0.0
 35
0.0
146
0.0
 13
0.0
 23
0.0
 33
0.0
 16
0.0
 26
0.0
 36
0.0
 17
0.0
 27
0.0
 37
0.0
 76
     0
330
B
331
0
345
0
346
0
  0
DICTIONARY
  5
1E
102
{ACAD_REACTORS
330
19
102
}
100
AcDbDictionary
280
     0
281
     1
  3
Layout1
350
21
  3
Model
350
20
  0
DICTIONARY
  5
22
102
{ACAD_REACTORS
330
19
102
}
100
AcDbDictionary
280
     0
281
     1
  0
WIPEOUTVARIABLES
  5
23
100
AcDbWipeoutVariables
 70
     1
  0
ENDSEC
  0
EOF
